Guitar Tabs, Chords and Lyrics
Major upgrade!! After one year development the new version of Chordie is now online! Please give feedback.


Fire  Jimi Hendrix

FIRE BY JIMI HENDRIX
tabbed by MaxxDaddy
Intro:
 
 -------------------------------------------------------
 -------------------------------------------------------
 --13-12\-x-x-10/12--------x-x--13-12--10/12------------
 -------------------12-12\----------------------12-12\--
 --11-10\-x-x--8/10--------x-x--11-10---8/10-x-x--------
 -------------------10-10\----------------------10-10\--

Verse
6x
 
 ||-------------||
 ||-------------||
 ||-------------||
 ||----10-12-12-||
 ||-12----------||
 ||-------------||

Chorus
[D] [D9] [C9] [D] [D9] [C9]  
 
 -----10--12--10--10--10\----------------------10--12--10--10--10---------
 -----10--10--10---8---8\----------------------10--10--10---8---8-8-------
 -----11--11--11---9---9\----------------------11--11--11---9---9-9-------
 -----12------12--10---------10-12-12----------12--12------10----------12-
 ------------------------/12----------------------------------------/14---
 -10-------------------------------------10-------------------------------

[D] [C9] [D9] [C9]  
 
 --------10-10-12-10-10-10----------------10-10-12-10---10---
 --------10-10-10-10--8--8----------------10-10-10-10----8\--
 --------11-------11--9--9-----7-9-7------11-11-11-11----9\--
 -14p12--12-------12---------9-------10------------12--------
 ------------------------------------------------------------
 --------10-10--------8-------------------10-10----------8---

Guitar solo:
 
 -12-----12-----12-------------12-----12-----12-----------------
 -15(17)-15(17)-15(17)15-------15(17)-15(17)-15(17)-12----------
 ------------------------12~~--------------------------14(16)~~-
 ---------------------------------------------------------------
 ---------------------------------------------------------------
 ---------------------------------------------------------------
 -12-----12-----12----------------12-----12-----12-----------
 -15(17)-15(17)-15(17)15----------15(17)-15(17)-15(17)-------
 ------------------------14(16)~~-----------------------12~~-
 ------------------------------------------------------------
 ------------------------------------------------------------
 ------------------------------------------------------------

repeat intro
Guitar Solo 2:
 
 -12-----12-----12------12---------12-----12-----12----------
 -15(17)-15(17)-15(17)--15(17)~~---15(17)-15(17)-15(17)-15~~-
 ------------------------------------------------------------
 ------------------------------------------------------------
 ------------------------------------------------------------
 ------------------------------------------------------------
 --12-----12-----12------12---------12-----12-----12------------
 --15(17)-15(17)-15(17)--15(17)~~---15(17)-15(17)-15(17)15------
 ----------------------------------------------------------12~~-
 ---------------------------------------------------------------
 ---------------------------------------------------------------
 ---------------------------------------------------------------
 --12-----12-----12------12----------------15-----15-----15------15-------
 --15(17)-15(17)-15(17)--15(17)15\13-------15(17)-15(17)-15(17)--15(17)~~-
 ------------------------------------10~~---------------------------------
 -------------------------------------------------------------------------
 -------------------------------------------------------------------------
 -------------------------------------------------------------------------
 ------------------------------------------------------------------
 --15(17)-15(17)-15(17)--15p12----------15(17)-15(17)-15(17)--15~~-
 ------------------------------14(16)~~----------------------------
 ------------------------------------------------------------------
 ------------------------------------------------------------------
 ------------------------------------------------------------------

Outro: fade(album version) or repeat intro(live version)
Lyrics:
You don't care for me, I don't care about that.
Ya' got a new fool, I like it like that.
I have only one a burnin' desire.
Let me stand next to your fire!
[D9](Let me stand next to your[C9] fire!)
Let me stand baby.
[D9](Let me stand next to your[C9] fire!)
Oh let me stand.
[D9](Let me stand next to your[C9] fire!)
Ya' got to let me stand.
[D9](Let me stand next to your[C9] fire!)
Aw shucks! Yeah!
Ya' say your mom ain't home, ya can't let me in.
Well I had you before, I don't need you again.
I have only one a burnin' desire.
Let me stand next to your fire!
Chorus
Bridge :
[D]Move over Rover
[C9]And let Jimi take over.
[A]You know what I'm talking about!
[C]yeah! Get on with it baby!
Guitar solo 1
Ya try to give me your money, you better save it babe.
Save it for a rainy day.
I have only one a burnin' desire,
Let me stand next to your fire!
Chorus
Guitar solo 2
Outro.

Important: The song above is NOT stored on the Chordie server. The original song is hosted at www.xguitar.com. Chordie works as a search engine and provides on-the-fly formatting. Chordie does not index songs against artists'/composers' will. To remove this song please click here.

Text color:
Chord color:
Chord grids: 
Font size:    
Page size: 

A C C9 D D9
Rate #1 of 7 versions

Jango Player

Login - add to songbook

SHARE PAGE  




You need to log in to post comments