Guitar Tabs, Chords and Lyrics
Major upgrade!! After one year development the new version of Chordie is now online! Please give feedback.


Stone Free  Jimi Hendrix

STONE FREE BY: JIMI HENDRIX
Intro:
(harm)
 
 -----------------------------------------
 -----------------------------------------
 -----------------------------------------
 -------(12)~~~---------------------------
 -----------------------------------------
 --(12)----------10h12--10h12--10h12--12\-

E riff(4x):
 
 ---------------------------------
 --8--8---------------------------
 --7--7---------------------------
 --6--6---------------5-----------
 --7--7---------5--------7---5--7-
 ---------0--7-----7--------------

A riff:
 
 -5-5--------------------5-5----------------------
 -5-5--------------------5-5----------5-7(8)7-----
 -6-6----------5~--------6-6----5-----5-7(8)7-5---
 -7-7------5------7-5-7--7-7--7---7------------7\-
 -----0--7---7------------------------------------
 -------------------------------------------------

Solo:
 
 -------------------------5-------5-------5-------5-------5-------5-
 -----------------------5---8(10)---8(10)---8(10)---8(10)---8(10)---
 --7(9)7p5---5~~~--7(9)---------------------------------------------
 ----------7--------------------------------------------------------
 -------------------------------------------------------------------
 -------------------------------------------------------------------
 -------5-------5-5-------5---------5--------------------
 -8(10)---8(10)-5-8(10)~~-5----8(10)---------------------
 -------------------------------------7(9)-7(9)7-5---5---
 --------------------------------------------------7---7-
 --------------------------------------------------------
 --------------------------------------------------------
 -5-5-5-5p0-0h5-0-5p0-5p0-5p0-5p0-5-0-0-8-0-8p0-8/10-8/10-
 ---------------------------------------------------------
 ---------------------------------------------------------
 ---------------------------------------------------------
 ---------------------------------------------------------
 ---------------------------------------------------------
 -10-10-10-10-10-0-10-0-10-0-10/12-12p0-12p0-12p0-8/10-7-0-12\-
 ------------------------------------------------------0-------
 --------------------------------------------------------------
 --------------------------------------------------------------
 --------------------------------------------------------------
 ------------------------------------------------------
 -0--------10(12)10p8-10p8----8------------------------
 -0--0--0------------------10---9\-7(9)-7p5---5~~------
 -0--0--0-----------------------------------7-----7----
 ----------------------------------------------------7-
 ------------------------------------------------------
 --------------------------------------------------------
 --------------------------------------------------------
 --------------------------------------------0-----------
 -7(9)~~7-7p5---5-------5-------5------------0--5~~------
 -------------7---7-------7---7---7-6-5------------------
 -------------------5/7-----5-----------8(9)-5------8--5-

Riff in outro chorus:
 
 ------------
 ------------
 ------------
 -4--5--6--7-
 ------------
 -2--3--4--5-

End riff(Radio 1 version):
 
 --------------------------
 --------------------------
 --------------------------
 -5~~--5p3---3-------5~~~~-
 ----------5---5\3-1-------

Lyrics:
[E7#9]Everyday of the week I'm in a different city
If I stay too long people try to pull me down
[A7]They talk about me like a dog
Talk about the clothes I wear
[E7#9]But they don't realize they're the ones who're square
Yeah!
[A]And that's why
You can't hold me down
I don't want to be tied down I gotta move on
Hey!I said
[D]Stone Free to do what I please
Stone Free to ride the breeze
Stone Free, baby I can't stay
[C]I got to got to got to g[A]et away
[C] [A] Yeah!
Listen here baby
[E7#9]Women here women there try to keep me in a plastic cage
But they don't realize it's so easy to break
[A]Yeah but sometimes I get a
feeling my heart kinda gettin' hot
[E7#9]That's when I got to move before I get caught
(CHORUS)
Tear me loose baby
(SOLO)
Hey! Yeah!
(CHORUS)
Live ending:
[F] [D]  

Important: The song above is NOT stored on the Chordie server. The original song is hosted at www.xguitar.com. Chordie works as a search engine and provides on-the-fly formatting. Chordie does not index songs against artists'/composers' will. To remove this song please click here.

Text color:
Chord color:
Chord grids: 
Font size:    
Page size: 

A A7 C D E7#9 F
Rate #1 of 3 versions

Jango Player

Login - add to songbook

SHARE PAGE  




You need to log in to post comments