Guitar Tabs, Chords and Lyrics
Server problems seems to be fixed. Chordie has been experiencing problems with songs disappearing. These issues now seems to be fixed, but still verifying the fix. If you find anything strange, please email admin@chordie.com.


Slow and Easy   Joe Satriani

 
 e|-------------|---------------------|------------------------|---------------------------|
 B|-------------|--------/12----------|------------------12h13p|-12\\\\10//12\\\\10------------|
 G|---16-bars---|---------------12----|-14---------------------|---------------------12----|
 D|-----rest----|---------------------|------------------------|---------------------------|
 A|-------------|---------------------|------------------------|---------------------------|
 E|-------------|---------------------|------------------------|---------------------------|
 |--------------------------|----------------------|-------------------|-------------------|
 |--------------------------|---------/12----------|-------------------|-------------------|
 |-14----p12p10\\9----10p9\\7h|-9--------------12----|-14----------------|-------------------|
 |--------------------------|----------------------|-------------------|------------/14----|
 |--------------------------|----------------------|-------------------|-------------------|
 |--------------------------|----------------------|-------------------|-------------------|

 


 


 Part \"B\"


 

 
 |-----------------------|---------------------|-------------------------|
 |-----------------------|--------/12----------|-----------------12--13--|
 |-----------------------|---------------12----|-14----------14----------|
 |/14---------p(12)\\-----|---------------------|-------------------------|
 |-----------------------|---------------------|-------------------------|
 |-----------------------|---------------------|-------------------------|
 |-----------------------|--------------------------|----------------------|
 |-12--------12----------|--------------------------|---------/12----------|
 |-----------------12----|/14-----p12p10\\9----10----|----------------12----|
 |-----------------------|--------------------------|-9--------------------|
 |-----------------------|--------------------------|----------------------|
 |-----------------------|--------------------------|----------------------|

 


 


 Part \"C\"


 

 
 |-------------------|---------|---------|-------------------|---------------------|
 |-------------------|---------|---------|-------------------|---------------------|
 |-14----------------|---------|---------|-10----------------|-9--------10----7----|
 |-------------------|---------|---------|-------------------|---------------------|
 |-------------------|---------|---------|-------------------|---------------------|
 |-------------------|---------|---------|-------------------|---------------------|
 |---------|--------------------|-----------------------|---------------------|
 |---------|--------------------|-------10---------p8p6\\|-5--------8---p6-p5-\\|
 |---------|--------------7--9--|-10--------------------|---------------------|
 |---------|-----------7--------|-----------------------|---------------------|
 |---------|--------------------|-----------------------|---------------------|
 |---------|--------------------|-----------------------|---------------------|
 |------------------|-----------------------|------------------------|
 |-3----------------|--------------------8--|/10----10---10-\\\\\\\\8----|
 |------------------|----------7--9--10-----|------------------------|
 |------------------|-------7---------------|------------------------|
 |------------------|-----------------------|------------------------|
 |------------------|-----------------------|------------------------|
 |-----------------------|-------------------------|------------------------|
 |-8\\\\\\\\6------------10--|-11----11---11----p10----|-10\\\\\\\\8--------8-10-11-|
 |---------------12------|-------------------------|------------------------|
 |-----------------------|-------------------------|------------------------|
 |-----------------------|-------------------------|------------------------|
 |-----------------------|-------------------------|------------------------|
 |----/10----10--10\\\\8----|-8\\\\\\\\6----6----6/8---|-8///10-----10----12----|
 |------------------------|----------------------|------------------------|
 |------------------------|----------------------|------------------------|
 |------------------------|----------------------|------------------------|
 |------------------------|----------------------|------------------------|
 |------------------------|----------------------|------------------------|

 


 ½ ½ ½ ½ ½ ½


 ) \\ ) \\ ) \\ ) \\ ) \\ ) \\


 

 
 |-12---p10--------10-12p(10)|-12-------(12)-------|(12)--(12)--(12)--(12)---|
 |---------------------------|---------------------|-------------------------|
 |---------------------------|---------------------|-------------------------|
 |---------------------------|---------------------|-------------------------|
 |---------------------------|---------------------|-------------------------|
 |---------------------------|---------------------|-------------------------|

 


 


 Part \"D\" (Solo)


 

 
 |-------------------|---------|-----------------------|-------------------|
 |-------------------|---------|---------------12------|-------------------|
 |---Play-part-\"A\"---|---------|-------14--------------|----------------16p|
 |-----(8-bars)------|---------|-14--------------------|-------------------|
 |-------------------|---------|-----------------------|-------------------|
 |-------------------|---------|-----------------------|-------------------|
 |---------------------------|-------------------|------------------------|
 |---------------10-------12p|-10----------------|------10-///13-p12------|
 |-14-----p12p10-------------|-------------------|----9-------------------|
 |---------------------------|-------------------|------------------------|
 |---------------------------|-------------------|------------------------|
 |---------------------------|-------------------|------------------------|
 |-------------------------|---------------------------|-----------------------------------|
 |/15--p13-----15////17----|-----15--------15--17--15--|-17-h18p17p15----17--15--17-h18p17p|
 |-------------------------|-----------17--------------|-----------------------------------|
 |-------------------------|---------------------------|-----------------------------------|
 |-------------------------|---------------------------|-----------------------------------|
 |-------------------------|---------------------------|-----------------------------------|
 |---------15----------------------|------17-----15------------|
 |-15--17------18--17--15------15--|-17----------------18--18--|
 |-------------------------17------|---------------------------|
 |---------------------------------|---------------------------|
 |---------------------------------|---------------------------|
 |---------------------------------|---------------------------|
 |---------------------------------|---------------------|-----------------|
 |-18-p17--17--15--15\\\\13--13\\\\12--|-12\\\\10--------------|-----------------|
 |---------------------------------|---------------------|-----------------|
 |---------------------------------|---------------------|-----------------|
 |---------------------------------|---------------------|-----------------|
 |---------------------------------|---------------------|-----------------|

 


 


 ½ ½


 

 
 |------)\\--)\\-------------|-----------------------12--|-13----------------|
 |-12--------------10--13--|-13/15---------13--15------|-------------------|
 |-------------12----------|---------------------------|-------------------|
 |-------------------------|---------------------------|-------------------|
 |-------------------------|---------------------------|-------------------|
 |-------------------------|---------------------------|-------------------|
 |-----17--------15--13--|-------------------|/15--/15--/15--/15---13--------|
 |-----------------------|-17----------------|--------------------------17---|
 |-----------------------|-------------------|-------------------------------|
 |-----------------------|-------------------|-------------------------------|
 |-----------------------|-------------------|-------------------------------|
 |-----------------------|-------------------|-------------------------------|

 


 full full


 ) \\ ) ½


 

 
 |-------------------|---------15--------|-13---15-------------|----------)------------|
 |-15----------------|-------------------|---------------------|--------17-----15------|
 |-------------------|-------------------|---------------------|-------------------17--|
 |-------------------|-------------------|---------------------|-----------------------|
 |-------------------|-------------------|---------------------|-----------------------|
 |-------------------|-------------------|---------------------|-----------------------|

 


 


 full


 

 
 |-----------------------|-----------------|---)-----------18------|-----------------|
 |-15----17--------18----|-----------------|-20------20------------|-----------------|
 |-----------------------|-----------------|-----------------------|-----------------|
 |-----------------------|-----------------|-----------------------|-----------------|
 |-----------------------|-----------------|-----------------------|-----------------|
 |-----------------------|-----------------|-----------------------|-----------------|

 


 


 full


 

 
 |---)---------------------|-----------------------|-------------------------|
 |-20------20--18----20----|-18--------------13----|-13--15------15----17----|
 |-------------------------|-------------14--------|-------------------------|
 |-------------------------|-----------------------|-------------------------|
 |-------------------------|-----------------------|-------------------------|
 |-------------------------|-----------------------|-------------------------|
 |-------13----13----15----|-15----------------|-----------------|------------|
 |-17----------------------|-------------------|-----------------|------------|
 |-------------------------|-------------------|-----------------|---4-bars---|
 |-------------------------|-------------------|-----------------|----rest----|
 |-------------------------|-------------------|-----------------|------------|
 |-------------------------|-------------------|-----------------|------------|

 


 


 (Part \"B\" - variation)


 

 
 |---------------------|-------------------------|-----------------------|
 |--------/12----------|-----------------12--13--|-12--------12----------|
 |---------------12----|-14----------14----------|-----------------12----|
 |---------------------|-------------------------|-----------------------|
 |---------------------|-------------------------|-----------------------|
 |---------------------|-------------------------|-----------------------|
 |--------------------------|----------------------|-------------------------|
 |--------------------------|---------/12----------|-----------------12--13--|
 |/14-----p12p10\\9----10----|----------------12----|-14----------14----------|
 |--------------------------|-9--------------------|-------------------------|
 |--------------------------|----------------------|-------------------------|
 |--------------------------|----------------------|-------------------------|
 |-----------------------|-------------------|-------------------|---------------|
 |-12-------/12----------|-------------------|-------------------|---------------|
 |-----------------12----|-14----------------|---Play-part-\"C\"---|-----Outro-----|
 |-----------------------|-------------------|------18-bars------|---no-guitar---|
 |-----------------------|-------------------|-------------------|---16+ bars----|
 |-----------------------|-------------------|-------------------|---------------|


Important: The song above is NOT stored on the Chordie server. The original song is hosted at www.xguitar.com. Chordie works as a search engine and provides on-the-fly formatting. Chordie does not index songs against artists'/composers' will. To remove this song please click here.

This song is displayed as text-only. Transposing and tuning is only available for chordpro-songs.
Rate #2 of 2 versions

Jango Player

Login - add to songbook

SHARE PAGE  




You need to log in to post comments