Guitar Tabs, Chords and Lyrics
Server problems seems to be fixed. Chordie has been experiencing problems with songs disappearing. These issues now seems to be fixed, but still verifying the fix. If you find anything strange, please email admin@chordie.com.


Can't Slow Down  Joe Satriani

As recorded by Joe Satriani
(From the 1989 Album FLYING IN A BLUE DREAM)
Words and Music by Joe Satriani
Arranged by Joe Satriani
Transcribed by Carl Culpepper
x 0 [A5]2 2 x x
Gtr I (E A D G B E) - 'Rhythm (L)'
Gtr II (E A D G B E) - 'Rhythm (R)'
Gtr III (E A D G B E) - 'Guitar Harmonics'
Gtr IV (E A D G B E) - 'Pick Slides'
Gtr V (E A D G B E) - 'Reverb'
Gtr VI (E A D G B E) - 'Lead'
Intro
Moderate Rock Q=138
[4/4] Gtrs V, VI
H Q E E W +W
 
 |----------------|-------------|-----------------|
 |-----------/10s=|===8---------|--(8)------------|
 |----------------|-------------|-----------------|
 |----------------|-------------|-----------------|
 |----------------|-------------|-----------------|
 |----------------|-------------|-----------------|

|
| Gtrs I, II
| <
| H Q E E W H +H
 
 |-----------(29)s|=(10)--------|-(22)----(22)----|
 |------------27s=|===8---------|--20-----(20)----|
 |----------------|-------------|-----------------|
 |----------------|-------------|-----------------|
 |----------------|-------------|-----------------|
 |----------------|-------------|-----------------|

|
| Gtr IV
| W W W
 
 |----------------|-------------|-----------------|
 |----------------|-------------|-----------------|
 |----------------|-------------|-----------------|
 |----------------|-------------|-----------------|
 |----------------|-------------|-----------------|
 |----------------|-------------|-----------------|

\5
~~~~~~~~~~~~~~~~~~
E a Q. +H +H. +Q
 
 |---------------------|------------------|
 |---------------------|------------------|
 |---------------------|------------------|
 |---------------------|------------------|
 |--/3-(3)s5----(5)----|-(5)-------(5)----|
 |---------------------|------------------|

|
| ~~~~~~~~~
| E Q. +H W
 
 |---------------------|------------------|
 |---------------------|------------------|
 |---------------------|------------------|
 |-(26)----------------|------------------|
 |--24s====5----(5)----|------------------|
 |---------------------|------------------|

|
| Gtrs I, II
| TP TP TP
| W Q Q Q Q
 
 |---------------------|------------------|
 |---------------------|------------------|
 |---------------------|------------------|
 |---------------------|------------------|
 |---------------------|--xS=xS=x---------|
 |---------------------|--xS=xS=x--12\----|

N.C.
Gtrs I, II, V
E S S +S S E +E Q E
 
 ||--------------------------------|
 ||o-------------------------------|
 ||--------------------------------|
 ||--11-0-12-(12)---14-(14)-17--14-|
 ||o--0----0--(0)-0--0--(0)--0---0-|
 ||--------------------------------|

[A5]  
 
 PM--------|

E S S +S S E +E E +S E S E S S +S S E +E E +S S E
 
 |--------------------------------------|------------------------------|
 |--------------------------------------|------------------------------|
 |--------------------------------------|-------------------2-(2)-2-2--|
 |-16---12-(12)---14-(14)-14-(14)-14-14-|-------------2-(2)-2-(2)-2-2--|
 |--0-0--0--(0)-0--0--(0)--0--(0)--0--0-|-------------0-(0)-0-(0)------|
 |--------------------------------------|-2-0-3-(3)-0------------------|

N.C. A5
S S S S S S S S E E +S S S S E S S +S S E +E Q E
 
 |-------------------------------|-------------------------------|
 |-------------------------------|-------------------------------|
 |-------------------2-(2)-------|-------------------------------|
 |-5p0-7p0-----------2-(2)-------|-11-0-12-(12)---14-(14)-17--14-|
 |---------5h7p5p0-0-------0-0-0-|--0----0--(0)-0--0--(0)--0---0-|
 |-------------------------------|-------------------------------|

E. S +S S E +E E +S S E
 
 |-----------------------------------|
 |-----------------------------------|
 |-----------------------------------|
 |-19--12-(12)---11-(11)-------14-14-|
 |------0--(0)-0--0--(0)-0-(0)--0--0-|
 |-----------------------------------|

[A5]  
 
 PM--------|

E S S +S S E +E E +S S E
 
 |-----------------------------|
 |-----------------------------|
 |-------------------2-(2)-2-2-|
 |-------------2-(2)-2-(2)-2-2-|
 |-------------0-(0)-0-(0)-----|
 |-2-0-3-(3)-0-----------------|

1. 2.
S S S S S S S S E [A5]E +S S S S S S S S S S S S [A5]E E Q
 
 |--------------------------------||-------------------------||
 |-------------------------------o||-------------------------||
 |-------------------2-(2)--------||-------------------------||
 |-5p0-7p0-----------2-(2)--------||-5p0-7p0---------2-------||
 |---------5h7p5p0-0-------0-0-0-o||---------5h7p5p0-0-------||
 |--------------------------------||-------------------------||

Verse I
[Asus4]E. S +E [A]E +E Q E E S S +S S E +E E E E
 
 ||----------------------|-----------------------------|
 ||o-3--3-(3)-2-(2)------|-----------------------------|
 ||--2--2-(2)-2-(2)-2----|-2-0-2-(2)-0-2-(2)-----------|
 ||--2--2-(2)-2-(2)-2----|-2-0-2-(2)-0-2-(2)-------2---|
 ||o-------------------0-|-------------------------0-0-|
 ||----------------------|-------------------3b3.5-----|

[Asus4]E. S +E [A]E +E Q E E S S +S S E +E E E E 4x
 
 |---------------------|------------------------------||
 |-3--3-(3)-2-(2)------|-----------------------------o||
 |-2--2-(2)-2-(2)-2----|-2-0-2-(2)-0-2-(2)------------||
 |-2--2-(2)-2-(2)-2----|-2-0-2-(2)-0-2-(2)-------2----||
 |-------------------0-|-------------------------0-0-o||
 |---------------------|-------------------3b3.5------||

Chorus I
N.C.G5 F#5 E5 F#5
[s] [s] [s] [s] [s] [s] [s] [s] [s] [s] [s] [s] [s] [s] [s] [s] [s] [s] [s] [s] [s] [s] [s] [s] [s] [s] [s] [s] [s] [s] [s] [s]  
 
 |---------------------------------|---------------------------------|
 |---------------------------------|---------------------------------|
 |---------------------------------|---------------------------------|
 |-9-9-9-9-9-9-9-9-7-7-7-7-7-7-7-7-|-5-5-5-5-5-5-5-5-7-7-7-7-7-7-7-7-|
 |---------------------------------|---------------------------------|
 |-3-3-3-3-3-3-3-3-2-2-2-2-2-2-2-2-|-0-0-0-0-0-0-0-0-2-2-2-2-2-2-2-2-|

[s] [s] [s] [s] [s] [s] [s] [s] [s] [s] [s] [s] [s] [s] [s] [s] [s] [s] [s] [s] [s] [s] [s] [s] [s] [s] [s] [s] [s] [s] [s] [s] 
[A5]E S S +S S E +E E E E E. S +E E +E Q.
 
 |--------------------------|---------------------|
 |--------------------------|-3--------------5----|
 |--------------------------|-0--0-(0)-------2----|
 |-2---2-(2)---2-(2)---2-/5-|----4-(4)-2-(2)------|
 |-0---0-(0)---0-(0)---0----|----------0-(0)------|
 |---3-------3-------3------|---------------------|

N.G5 F#5 E5 F#5
[s] [s] [s] [s] [s] [s] [s] [s] [s] [s] [s] [s] [s] [s] [s] [s] [s] [s] [s] [s] [s] [s] [s] [s] [s] [s] [s] [s] [s] [s] [s] [s]  
 
 |---------------------------------|----------------------------------|
 |---------------------------------|----------------------------------|
 |---------------------------------|----------------------------------|
 |-9-9-9-9-9-9-9-9-7-7-7-7-7-7-7-7-|-5-5-5-5-5-5-5-5-7-7-7-7-7-7-7-7--|
 |---------------------------------|----------------------------------|
 |-3-3-3-3-3-3-3-3-2-2-2-2-2-2-2-2-|-0-0-0-0-0-0-0-0-2-2-2-2-2-2-2-2--|

[s] [s] [s] [s] [s] [s] [s] [s] [s] [s] [s] [s] [s] [s] [s] [s] [s] [s] [s] [s] [s] [s] [s] [s] [s] [s] [s] [s] [s] [s] [s] [s] 
[A5]E S S +S S E +E E E E
 
 |--------------------------|
 |--------------------------|
 |--------------------------|
 |-2---2-(2)---2-(2)---2-/5-|
 |-0---0-(0)---0-(0)---0----|
 |---3-------3-------3------|

Gtrs I, II, III Gtr IV
TP
S S S S S S S S S S S S E E
 
 |-----------------------------------------------------------|
 |-----------------------------------------------------------|
 |-----------------------------------------------------------|
 |-----------------------------------------------------------|
 |-<12>-<12>-<12>-<7>-<7>-<7>-<5>-<5>-<5>-<4>-<4>-<4>-<2>-x/-|
 |-----------------------------------------------------------|

N.C.
Gtrs I, II, V
E S S +S S E +E Q E
 
 |-------------------------------|
 |-------------------------------|
 |-------------------------------|
 |-11-0-12-(12)---14-(14)-17--14-|
 |--0----0--(0)-0--0--(0)--0---0-|
 |-------------------------------|

[A5]  
 
 PM--------|

E S S +S S E +E E +S E S E S S +S S E +E E +S S E
 
 |--------------------------------------|-----------------------------|
 |--------------------------------------|-----------------------------|
 |--------------------------------------|-------------------2-(2)-2-2-|
 |-16---12-(12)---14-(14)-14-(14)-14-14-|-------------2-(2)-2-(2)-2-2-|
 |--0-0--0--(0)-0--0--(0)--0--(0)--0--0-|-------------0-(0)-0-(0)-----|
 |--------------------------------------|-2-0-3-(3)-0-----------------|

N.C. A5
S S S S S S S S E E +S S S S E S S +S S E +E Q E
 
 |-------------------------------|-------------------------------|
 |-------------------------------|-------------------------------|
 |-------------------2-(2)-------|-------------------------------|
 |-5p0-7p0-----------2-(2)-------|-11-0-12-(12)---14-(14)-17--14-|
 |---------5h7p5p0-0-------0-0-0-|--0----0--(0)-0--0--(0)--0---0-|
 |-------------------------------|-------------------------------|

E. S +S S E +E E +S S E
 
 |-----------------------------------|
 |-----------------------------------|
 |-----------------------------------|
 |-19--12-(12)---11-(11)-------14-14-|
 |------0--(0)-0--0--(0)-0-(0)--0--0-|
 |-----------------------------------|

[A5] [A5]  
 
 PM--------|

E S S +S S E +E E +S S E S S S S S S S S E E Q
 
 |-----------------------------|------------------------|
 |-----------------------------|------------------------|
 |-------------------2-(2)-2-2-|------------------------|
 |-------------2-(2)-2-(2)-2-2-|-5p0-7p0---------2------|
 |-------------0-(0)-0-(0)-----|---------5h7p5p0-0------|
 |-2-0-3-(3)-0-----------------|------------------------|

Verse II
[Asus4]E. S +E [A]E +E Q E E S S +S S E +E E E E
 
 ||----------------------|-----------------------------|
 ||o-3--3-(3)-2-(2)------|-----------------------------|
 ||--2--2-(2)-2-(2)-2----|-2-0-2-(2)-0-2-(2)-----------|
 ||--2--2-(2)-2-(2)-2----|-2-0-2-(2)-0-2-(2)-------2---|
 ||o-------------------0-|-------------------------0-0-|
 ||----------------------|-------------------3b3.5-----|

[Asus4]E. S +E [A]E +E Q E E S S +S S E +E E E E
 
 |---------------------|------------------------------||
 |-3--3-(3)-2-(2)------|-----------------------------o||
 |-2--2-(2)-2-(2)-2----|-2-0-2-(2)-0-2-(2)------------||
 |-2--2-(2)-2-(2)-2----|-2-0-2-(2)-0-2-(2)-------2----||
 |-------------------0-|-------------------------0-0-o||
 |---------------------|-------------------3b3.5------||

Chorus II
N.C.G5 F#5 E5 F#5
[s] [s] [s] [s] [s] [s] [s] [s] [s] [s] [s] [s] [s] [s] [s] [s] [s] [s] [s] [s] [s] [s] [s] [s] [s] [s] [s] [s] [s] [s] [s] [s]  
 
 ||----------------------------------|---------------------------------|
 ||o---------------------------------|---------------------------------|
 ||----------------------------------|---------------------------------|
 ||--9-9-9-9-9-9-9-9-7-7-7-7-7-7-7-7-|-5-5-5-5-5-5-5-5-7-7-7-7-7-7-7-7-|
 ||o---------------------------------|---------------------------------|
 ||--3-3-3-3-3-3-3-3-2-2-2-2-2-2-2-2-|-0-0-0-0-0-0-0-0-2-2-2-2-2-2-2-2-|

[s] [s] [s] [s] [s] [s] [s] [s] [s] [s] [s] [s] [s] [s] [s] [s] [s] [s] [s] [s] [s] [s] [s] [s] [s] [s] [s] [s] [s] [s] [s] [s] 
[A5]E S S +S S E +E E E E E. S +E E +E Q. 3x
 
 |--------------------------|-----------------------||
 |--------------------------|-3--------------5-----o||
 |--------------------------|-0--0-(0)-------2------||
 |-2---2-(2)---2-(2)---2-/5-|----4-(4)-2-(2)--------||
 |-0---0-(0)---0-(0)---0----|----------0-(0)-------o||
 |---3-------3-------3------|-----------------------||

N.C.G5 F#5 E5 F#5
[s] [s] [s] [s] [s] [s] [s] [s] [s] [s] [s] [s] [s] [s] [s] [s] [s] [s] [s] [s] [s] [s] [s] [s] [s] [s] [s] [s] [s] [s] [s] [s]  
 
 |---------------------------------|---------------------------------|
 |---------------------------------|---------------------------------|
 |---------------------------------|---------------------------------|
 |-9-9-9-9-9-9-9-9-7-7-7-7-7-7-7-7-|-5-5-5-5-5-5-5-5-7-7-7-7-7-7-7-7-|
 |---------------------------------|---------------------------------|
 |-3-3-3-3-3-3-3-3-2-2-2-2-2-2-2-2-|-0-0-0-0-0-0-0-0-2-2-2-2-2-2-2-2-|

[s] [s] [s] [s] [s] [s] [s] [s] [s] [s] [s] [s] [s] [s] [s] [s] [s] [s] [s] [s] [s] [s] [s] [s] [s] [s] [s] [s] [s] [s] [s] [s] 
[A5] Gtr IV
TP TP TP TP
E S S +S S E +E E E E Q Q Q Q
 
 |-------------------------|-----------------|
 |-------------------------|-----------------|
 |-------------------------|-----------------|
 |-2---2-(2)---2-(2)---2---|-----------------|
 |-0---0-(0)---0-(0)---0---|-x\--x\--x\--x\--|
 |---3-------3-------3---3-|-x\--x\--x\--x\--|

Guitar Solo
[F#5]Gtr VI[A5]
 
 |-------6--------| |--------6--------| |-------6-------| |------6-------|

S S S S S S S S S S S S S S S S S S S S S S S S
 
 |-16h17p16p14------14-16--17p==16p14----14-16h=17p16p14----14-16-17p16p14----14-|
 |-------------17---------------------17-----------------17----------------17----|
 |-------------------------------------------------------------------------------|
 |-------------------------------------------------------------------------------|
 |-------------------------------------------------------------------------------|
 |-------------------------------------------------------------------------------|

|
| Gtrs I, II
| ~~~~~~~~~~~~
| E S S +S S E +E E E E
 
 |-------------------------------------------------------------------------------|
 |-------------------------------------------------------------------------------|
 |-------------------------------------------------------------------------------|
 |-------------------------------------------------------------------------------|
 |-------------------------------------------------------------------------------|
 |--2--------0----2----(2)----0-----2-------(2)--------0--------2--------5-------|

[F#5] [E5]  
 
 |-------6--------| |--------6--------| |-------6-------| |------6-------|

S S S S S S S S S S S S S S S S S S S S S S S S
 
 |-16-17p16p14---------16--17p==16p14----14-16--17p16p14----14-16-17p16p14----14-|
 |-------------17---14----------------17-----------------17----------------17----|
 |-------------------------------------------------------------------------------|
 |-------------------------------------------------------------------------------|
 |-------------------------------------------------------------------------------|
 |-------------------------------------------------------------------------------|

|
| ~~~~~~~~~~~~
| E S S +S S E +E E E E
 
 |-------------------------------------------------------------------------------|
 |-------------------------------------------------------------------------------|
 |-------------------------------------------------------------------------------|
 |-------------------------------------------------------------------------------|
 |-------------------------------------------------------------------------------|
 |--2--------0----2----(2)----0-----2-------(2)--------0--------2--------0-------|

[F#5]Gtr VI[A5]
 
 |-------6--------|

S S S S S S T T T T S S T T T T S S T T T T S S
 
 |-17-19p17p14------14-16h=17p16p14--------------------------------------------|
 |-------------17-------------------17-14-16h=17p16p14-16-14-16h17p16p14-------|
 |-----------------------------------------------------------------------17p14-|
 |-----------------------------------------------------------------------------|
 |-----------------------------------------------------------------------------|
 |-----------------------------------------------------------------------------|

|
| Gtrs I, II
| ~~~~~~~~~
| E S S +S S E +E E E E
 
 |-----------------------------------------------------------------------------|
 |-----------------------------------------------------------------------------|
 |-----------------------------------------------------------------------------|
 |-----------------------------------------------------------------------------|
 |-----------------------------------------------------------------------------|
 |--2--------0----2----(2)-----0-----2----(2)-----------0-----2-----------5----|

[F#5] [E5]  
 
 |-------6--------| |--3---|

S S S S S S T T T T T T T T S S S T T T T T T T T S S
 
 |--------------------------------------------------------------------------------------|
 |-16h17p16p14--------------------------------------------------------------------------|
 |-------------17p==14h16p=14p13h14h16p14p13s11h13p=11-11h13h14p13p11s9h11h13p9s8-11----|
 |--------------------------------------------------------------------------------------|
 |--------------------------------------------------------------------------------------|
 |--------------------------------------------------------------------------------------|

|
| E S S +S S E +E E E E
 
 |---------------------------------------------------------0--------------------0-------|
 |---------------------------------------------------------0--------------------0-------|
 |--------------------------------------------------------------------------------------|
 |--------------------------------------------------------------------------------------|
 |-----------------------------------2----------(2)-------------------------------------|
 |--2--------0----2----(2)-----0-----0----------(0)-------------------0-----------------|

[F#5] [A5]  
 
 |----6-----|

T T S +T T T T T T T T S T T S S S S S S T T T T T T T T
 
 |----------------------------------------------------------------|
 |----------------------------------------------------------------|
 |-6h8h9-(9)-8p6s8--8h=9h11p8s6-8h9p=8p=6-----------------------6-|
 |----------------------------------------9-6h7h9-6h7h9p7p6h7h9---|
 |----------------------------------------------------------------|
 |----------------------------------------------------------------|

|
| ~~~~~~~~~~
| E S S +S S E +E E E E
 
 |----------------------------------------------------------------|
 |----------------------------------------------------------------|
 |----------------------------------------------------------------|
 |----------------------------------------------------------------|
 |----------------------------------------------------------------|
 |-2------0----2---(2)----0---2-----(2)-----0-----2-------5-------|

[F#5] [E5]  
 
 |-----6-----| |-----6------| |----6-----|

S S S S S S S S S S S S S S S S S S T T T T T T S
 
 |--------------------------------------------------------------|
 |--------------------------------------------------------------|
 |--------------------------------------------------------------|
 |-8h9p8p6-----6--8h=9p==8p6---6h=8h=9p8p6----------------------|
 |---------9-----------------9-------------9-6h7h9p7p6s7-9-11---|
 |--------------------------------------------------------------|

|
| ~~~~~~~~~~
| E S S +S S E +E E E E
 
 |--------------------------------------------------------------|
 |--------------------------------------------------------------|
 |--------------------------------------------------------------|
 |--------------------------------------------------------------|
 |--------------------------------------------------------------|
 |-2-----0---2---(2)---0---2-----(2)-----0-----2-------0--------|

[F#5]T T T T S T T S S T T S T T T T S T S. T T [A5]T T T T
 
 |-----------------------------------------------------------|
 |-----------------------------------------------------------|
 |-8h9h11p8s6h8h9p=8------------------6----------------------|
 |--------------------9-6h7h9p=6h=7h9---7p6-6h==7h9p6s7h9h11-|
 |-----------------------------------------------------------|
 |-----------------------------------------------------------|

|
| ~~~~~~~~~~
| E S S +S S E +E E E E
 
 |-----------------------------------------------------------|
 |-----------------------------------------------------------|
 |-----------------------------------------------------------|
 |-----------------------------------------------------------|
 |-----------------------------------------------------------|
 |-2--------0-2---(2)-0-2-----(2)-------0-----2-----5--------|

[F#5]S T T S S S S S S +S E. [E5] +S E S
 
 |----------------------------------------|
 |----------------------------------------|
 |-------------------------4----(4)-2-----|
 |-6h7h9p6s4------------------------------|
 |------------4s=2-4s6-(6)----------------|
 |----------------------------------------|

|
| E S S +S S E +E E E E
 
 |----------------------------0-------0---|
 |----------------------------0-------0---|
 |----------------------------------------|
 |----------------------------------------|
 |-----------------2---(2)----------------|
 |-2-----0-2-(2)-0-0---(0)-------0--------|

[F#5]Gtrs III, VI[A5] [F#5] [E5]
E +E S S S S S S S S S S S S S S S S S S S S S S S S S S S S
 
 |------------2--------------------------|-------------------------------------|
 |---------------5-2----2----2---2-------|----------2--5-2-1s=2----2-2-5-4-2s1-|
 |-4b6-(4)-----------4-----5---5---5-4-2-|---2-4-5---------------5-------------|
 |---------------------------------------|-4-----------------------------------|
 |---------------------------------------|-------------------------------------|
 |---------------------------------------|-------------------------------------|

|
| ~~~~~~~~ ~~~~~~~~
| E S S +S S E +E E E E E S S +S S E +E E E E
 
 |---------------------------------------|-------------------------------------|
 |---------------------------------------|-------------------------------------|
 |---------------------------------------|-------------------------------------|
 |---------------------------------------|-------------------------------------|
 |---------------------------------------|-------------------------------------|
 |-2----0--2-(2)-0-2---(2)---0---2---5---|-2---0-2-(2)-0-2---(2)---0---2---0---|

[F#5] [A5]  
 
 |--3--| |-3-|

S S S S S S T +T S S S S S S S S S S S
 
 |-------------------------------------------------|
 |-2-4-5p4p==2--4--4b5r(4)p2----2--------5p4p2---2-|
 |---------------------------5-----5-4-2-------5---|
 |-------------------------------------------------|
 |-------------------------------------------------|
 |-------------------------------------------------|

|
| ~~~~~~~~
| E S S +S S E +E E E E
 
 |-------------------------------------------------|
 |-------------------------------------------------|
 |-------------------------------------------------|
 |-------------------------------------------------|
 |-------------------------------------------------|
 |-2---0---2---(2)-0-------2---(2)---0---2-----5---|

[F#5] [E5] Gtrs IV, VI
~~~~~~~ TP
S S S S S S S S +E E E E
 
 |-------------------------2-----2-|
 |-4-2---2-------------------------|
 |-----5----5--4-2-[4]-(4)---/x\---|
 |---------------------------------|
 |---------------------------------|
 |---------------------------------|

|
| E S S +S S E +E E E E
 
 |-------------------------0-----0-|
 |-------------------------0-----0-|
 |---------------------------------|
 |---------------------------------|
 |---------------2-----(2)---------|
 |-2---0-2-(2)-0-0-----(0)----0----|

[F#5]Gtr VI[A5]
|-3-| |3|
S S S S E S S S S S T T +S T T T S T T T S
 
 |-5p2p0--------2p=0-2p0--7p=5p0-(0)-0-7p5p0-0-7p5p0--|
 |-------0h2------------------------------------------|
 |----------------------------------------------------|
 |----------------------------------------------------|
 |----------------------------------------------------|
 |----------------------------------------------------|

|
| ~~~~~~~~
| E S S +S S E +E E E E
 
 |----------------------------------------------------|
 |----------------------------------------------------|
 |----------------------------------------------------|
 |----------------------------------------------------|
 |----------------------------------------------------|
 |-2-----0---2-(2)-0-2---(2)------0------2-----5------|

[F#5]S T T S +T T T T S T T S S T T +S T T T S T [E5] S T T
 
 |-9p7p0-0-(0)-9p=7p=0-0-9p7p0-12p=9p0-(0)-0-12p9p0-0-12p9p0-|
 |-----------------------------------------------------------|
 |-----------------------------------------------------------|
 |-----------------------------------------------------------|
 |-----------------------------------------------------------|
 |-----------------------------------------------------------|

|
| ~~~~~~~~~~
| E S S +S S E +E E E E
 
 |-----------------------------------------------------------|
 |-----------------------------------------------------------|
 |-----------------------------------------------------------|
 |-----------------------------------------------------------|
 |-----------------------------------------------------------|
 |-2-----0--2----(2)---0-2-----(2)------0-------2------0-----|

[F#5] [A5]Gtr IV
TP
S T T +S T T T S +T S T T S T T +S T T E E
 
 |-14p12p0-(0)-0-14p12p=0---(0)-14p12p0-17p=14p0-(0)-0-17--------|
 |--------------------------------------------------------14/----|
 |---------------------------------------------------------------|
 |---------------------------------------------------------------|
 |---------------------------------------------------------------|
 |------------------------------------------------------------x\-|

|
| ~~~~~~~~~~~
| E S S +S S E +E E E E
 
 |---------------------------------------------------------------|
 |---------------------------------------------------------------|
 |---------------------------------------------------------------|
 |---------------------------------------------------------------|
 |---------------------------------------------------------------|
 |--2-------0--2----(2)---0------2------(2)-------0--------2--5--|

[F#5] Gtr VI GtrGtr V
TP ~~~~~ TP
E Q. Q E S S
 
 |----19b21-----------19b21-----9-9-|
 |----------------------------------|
 |------------------------------6-6-|
 |----------------------------------|
 |----------------------------------|
 |-x\------------------------x\-----|

|
| E S S +S S E +H
 
 |----------------------------------|
 |----------------------------------|
 |----------------------------------|
 |----------------------------------|
 |------------------4-(4)-----------|
 |-2---0----2-(2)-0-2-(2)-----------|

I[B5]
S S S S S S S S S S S S S S S S
 
 |-11--11-11-/12-12--12-/14-14-14--14-14-14-/17-17-17-17\-|
 |--------------------------------------------------------|
 |--8---8--8--/9--9---9-/11-11-11--11-11-11-/14-14-14-14\-|
 |--------------------------------------------------------|
 |--------------------------------------------------------|
 |--------------------------------------------------------|

|
| E. s +E E +S S S S S S S S
 
 |--------------------------------------------------------|
 |--------------------------------------------------------|
 |--------------------------------------------------------|
 |--4----------4-(4)------4----(4)--4--4--4---4--4--4--4--|
 |--2----------2-(2)------2----(2)--2--2--2---2--2--2--2--|
 |--------------------------------------------------------|

S S S S S S S S S S S S S S S S
 
 |-\16--16-16-\12-12--12-/14-14-14--14-14-14-14-14-14s16-|
 |-------------------------------------------------------|
 |-\13--13-13--\9--9---9-/11-11-11--11-11-11-11-11-11s13-|
 |-------------------------------------------------------|
 |-------------------------------------------------------|
 |-------------------------------------------------------|

|
| E. s +E E +S S S S Q
 
 |-------------------------------------------------------|
 |-------------------------------------------------------|
 |-------------------------------------------------------|
 |---4----------4-(4)------4----(4)--4--4--4--4----------|
 |---2----------2-(2)------2----(2)--2--2--2--2----------|
 |-------------------------------------------------------|

[E5] S S S S S S S S S S S S S S S S
 
 |-16--16-16-/17-17--17-/19-19-19-19-19-/22-22-22-22-22\--|
 |--------------------------------------------------------|
 |-13--13-13-/14-14--14-/16-16-16-16-16-/19-19-19-19-19\--|
 |--------------------------------------------------------|
 |--------------------------------------------------------|
 |--------------------------------------------------------|

|
| E. S +S S S S S S S S S S E
 
 |--------------------------------------------------------|
 |--------------------------------------------------------|
 |--9----------9-(9)--9---9--9--9--9--9---9--9--9--9------|
 |--9----------9-(9)--9---9--9--9--9--9---9--9--9--9------|
 |--7----------7-(7)--7---7--7--7--7--7---7--7--7--7------|
 |--------------------------------------------------------|

Main Riff Reprise
[A5] [E5] [A5]Gtr VI
W W
|
[/] 
Gtrs I, II
~~~~
S S S S S S E +Q. +E E. S +E E +E. Q S
 
 |-\21--21-21-\17-17--17S19-(19)---(19)/-|------------------------------|
 |---------------------------------------|------------------------------|
 |-\18--18-18-\14-14--14-----------------|------------------------------|
 |---------------------------------------|-11--12-(12)-14-(14)-14--/17--|
 |---------------------------------------|--0---0--(0)--0--(0)--0---(0)-|
 |---------------------------------------|------------------------------|

|
| E. S +E E +H W
 
 |---------------------------------------|------------------------------|
 |---------------------------------------|------------------------------|
 |---7-----------------------------------|------------------------------|
 |---7----------7-(7)-----2--(2)---------|------------------------------|
 |---5----------7-(7)-----2--(2)---------|------------------------------|
 |--------------5-(5)-----0--(0)---------|------------------------------|

+W W
| |
[/] [/]  
E. S +E E +H E S S +S S E +E Q.
 
 |------------------------|------------------------|
 |------------------------|------------------------|
 |------------------------|-------------------2----|
 |-16--12-(12)-14-(14)----|-------------------2----|
 |--0---0--(0)--0--(0)----|-------------0-(0)-0----|
 |------------------------|-2-0-3-(3)-0------------|

+W +W
| |
[/] [/]  
S S S S S S S S E Q +E E S S +S S E +E Q E
 
 |----------------------------|-------------------------------|
 |----------------------------|-------------------------------|
 |--------------------2-------|-------------------------------|
 |--5p0-7p0-----------2--(2)/-|-11-0-12-(12)---14-(14)-17--14-|
 |----------5h7p5p0-0---------|--0----0--(0)-0--0--(0)--0---0-|
 |----------------------------|-------------------------------|

+W
|
[/]  
E. S +S S E +E E +S S E
 
 |-----------------------------------|
 |-----------------------------------|
 |-----------------------------------|
 |-19--12-(12)---11-(11)-------14-14-|
 |------0--(0)-0--0--(0)-0-(0)--0--0-|
 |-----------------------------------|

+W W
|
[/]  
 
 PM--------|

E S S +S S E +E E +S S E S S S S S S S S E E +S S S S
 
 |------------------------------|--------------------------------|
 |------------------------------|--------------------------------|
 |--------------------2-(2)-2-2-|--------------------2-(2)-------|
 |--------------2-(2)-2-(2)-2-2-|--5p0-7p0-----------2-(2)-------|
 |--------------0-(0)-0-(0)-----|----------5h7p5p0-0-------0-0-0-|
 |--2-0-3-(3)-0-----------------|--------------------------------|

|
| Gtrs V, VI
| <
| W W
 
 |------------------------------|--------------------------------|
 |------------------------------|-17-----------------------------|
 |------------------------------|--------------------------------|
 |------------------------------|--------------------------------|
 |------------------------------|--------------------------------|
 |------------------------------|--------------------------------|

W W
E S S +S S E +E Q E E S S +S S E +E E +S E S
 
 |---------------------------------|----------------------------------------|
 |---------------------------------|----------------------------------------|
 |---------------------------------|----------------------------------------|
 |--11--0-12-(12)---14-(14)-17--14-|--16----12-(12)---14-(14)-14-(14)-14-14-|
 |---0-----0--(0)-0--0--(0)--0---0-|---0--0--0--(0)-0--0--(0)--0--(0)--0--0-|
 |---------------------------------|----------------------------------------|

|
| +W +W
 
 |---------------------------------|----------------------------------------|
 |-(17)----------------------------|-(17)-----------------------------------|
 |---------------------------------|----------------------------------------|
 |---------------------------------|----------------------------------------|
 |---------------------------------|----------------------------------------|
 |---------------------------------|----------------------------------------|
 PM---------|

E S S +S S E +E E +S S E S S S S S S S S E E +S S S S
 
 |--------------------------------|----------------------------------|
 |--------------------------------|----------------------------------|
 |----------------------2-(2)-2-2-|----------------------2-(2)-------|
 |----------------2-(2)-2-(2)-2-2-|---5p=0-7p0-----------2-(2)-------|
 |----------------0-(0)-0-(0)-----|------------5h7p5p0-0-------0-0-0-|
 |---2--0-3-(3)-0-----------------|----------------------------------|

|
| <
| +H H +W
 
 |--------------------------------|----------------------------------|
 |-(17)-------------20------------|-(20)-----------------------------|
 |--------------------------------|----------------------------------|
 |--------------------------------|----------------------------------|
 |--------------------------------|----------------------------------|
 |--------------------------------|----------------------------------|

E S S +S S E +E Q E
 
 |----------------------------------|
 |----------------------------------|
 |----------------------------------|
 |--11--0-12-(12)---14-(14)-17--14--|
 |---0-----0--(0)-0--0--(0)--0---0--|
 |----------------------------------|

|
| +W
 
 |----------------------------------|
 |-(20)-----------------------------|
 |----------------------------------|
 |----------------------------------|
 |----------------------------------|
 |----------------------------------|
 PM---------|

E. S +S S E +E E +S S E E S S +S S E +E E +S S E
 
 |------------------------------------|--------------------------------|
 |------------------------------------|--------------------------------|
 |------------------------------------|----------------------2-(2)-2-2-|
 |--19--12-(12)---11-(11)-------14-14-|----------------2-(2)-2-(2)-2-2-|
 |-------0--(0)-0--0--(0)-0-(0)--0--0-|----------------0-(0)-0-(0)-----|
 |------------------------------------|---2--0-3-(3)-0-----------------|

|
| +W +W
 
 |------------------------------------|--------------------------------|
 |-(20)-------------------------------|-(20)---------------------------|
 |------------------------------------|--------------------------------|
 |------------------------------------|--------------------------------|
 |------------------------------------|--------------------------------|
 |------------------------------------|--------------------------------|

S S S S S S S S E E Q
 
 |----------------------------------------|
 |----------------------------------------|
 |----------------------------------------|
 |---5p=0-7p0----------------2------------|
 |--------------5h===7p5p0---0------------|
 |----------------------------------------|

|
| \1.5______________/
| +Q +Q +E +Q E
 
 |----------------------------------------|
 |-(20)-------(20)---------(20)-(20)------|
 |----------------------------------------|
 |----------------------------------------|
 |----------------------------------------|
 |----------------------------------------|

Verse III
[Asus4]E. S +E [A]E +E Q E E S S +S S E +E E E E
 
 ||----------------------|-----------------------------|
 ||o-3--3-(3)-2-(2)------|-----------------------------|
 ||--2--2-(2)-2-(2)-2----|-2-0-2-(2)-0-2-(2)-----------|
 ||--2--2-(2)-2-(2)-2----|-2-0-2-(2)-0-2-(2)-------2---|
 ||o-------------------0-|-------------------------0-0-|
 ||----------------------|-------------------3b3.5-----|

[Asus4]E. S +E [A]E +E Q E E S S +S S E +E E E E 4x
 
 |---------------------|------------------------------||
 |-3--3-(3)-2-(2)------|-----------------------------o||
 |-2--2-(2)-2-(2)-2----|-2-0-2-(2)-0-2-(2)------------||
 |-2--2-(2)-2-(2)-2----|-2-0-2-(2)-0-2-(2)-------2----||
 |-------------------0-|-------------------------0-0-o||
 |---------------------|-------------------3b3.5------||

Chorus III
N.C.G5 F#5 E5 F#5
[s] [s] [s] [s] [s] [s] [s] [s] [s] [s] [s] [s] [s] [s] [s] [s] [s] [s] [s] [s] [s] [s] [s] [s] [s] [s] [s] [s] [s] [s] [s] [s]  
 
 ||----------------------------------|---------------------------------|
 ||o---------------------------------|---------------------------------|
 ||----------------------------------|---------------------------------|
 ||--9-9-9-9-9-9-9-9-7-7-7-7-7-7-7-7-|-5-5-5-5-5-5-5-5-7-7-7-7-7-7-7-7-|
 ||o---------------------------------|---------------------------------|
 ||--3-3-3-3-3-3-3-3-2-2-2-2-2-2-2-2-|-0-0-0-0-0-0-0-0-2-2-2-2-2-2-2-2-|

[s] [s] [s] [s] [s] [s] [s] [s] [s] [s] [s] [s] [s] [s] [s] [s] [s] [s] [s] [s] [s] [s] [s] [s] [s] [s] [s] [s] [s] [s] [s] [s] 
[A5]E S S +S S E +E E E E E. S +E E +E Q. 3x
 
 |--------------------------|-----------------------||
 |--------------------------|-3--------------5-----o||
 |--------------------------|-0--0-(0)-------2------||
 |-2---2-(2)---2-(2)---2-/5-|----4-(4)-2-(2)--------||
 |-0---0-(0)---0-(0)---0----|----------0-(0)-------o||
 |---3-------3-------3------|-----------------------||

N.G5 F#5 E5 F#5
[s] [s] [s] [s] [s] [s] [s] [s] [s] [s] [s] [s] [s] [s] [s] [s] [s] [s] [s] [s] [s] [s] [s] [s] [s] [s] [s] [s] [s] [s] [s] [s]  
 
 |---------------------------------|----------------------------------|
 |---------------------------------|----------------------------------|
 |---------------------------------|----------------------------------|
 |-9-9-9-9-9-9-9-9-7-7-7-7-7-7-7-7-|-5-5-5-5-5-5-5-5-7-7-7-7-7-7-7-7--|
 |---------------------------------|----------------------------------|
 |-3-3-3-3-3-3-3-3-2-2-2-2-2-2-2-2-|-0-0-0-0-0-0-0-0-2-2-2-2-2-2-2-2--|

[s] [s] [s] [s] [s] [s] [s] [s] [s] [s] [s] [s] [s] [s] [s] [s] [s] [s] [s] [s] [s] [s] [s] [s] [s] [s] [s] [s] [s] [s] [s] [s] 
[A5]E S S +S S E +E E E E
 
 |--------------------------|
 |--------------------------|
 |--------------------------|
 |-2---2-(2)---2-(2)---2-/5-|
 |-0---0-(0)---0-(0)---0----|
 |---3-------3-------3------|

Gtrs I, II, III Gtrs III, IV
TP
S S S S S S S S S S S S E E
 
 |-----------------------------------------------------------|
 |-----------------------------------------------------------|
 |-----------------------------------------------------------|
 |-----------------------------------------------------------|
 |-<12>-<12>-<12>-<7>-<7>-<7>-<5>-<5>-<5>-<4>-<4>-<4>-<2>-x/-|
 |-----------------------------------------------------------|

Outro
N.C.
Gtrs I, II, V
E S S +S S E +E Q E
 
 ||--------------------------------|
 ||o-------------------------------|
 ||--------------------------------|
 ||--11-0-12-(12)---14-(14)-17--14-|
 ||o--0----0--(0)-0--0--(0)--0---0-|
 ||--------------------------------|

[A5]  
 
 PM--------|

E S S +S S E +E E +S E S E S S +S S E +E E +S S E
 
 |--------------------------------------|------------------------------|
 |--------------------------------------|------------------------------|
 |--------------------------------------|-------------------2-(2)-2-2--|
 |-16---12-(12)---14-(14)-14-(14)-14-14-|-------------2-(2)-2-(2)-2-2--|
 |--0-0--0--(0)-0--0--(0)--0--(0)--0--0-|-------------0-(0)-0-(0)------|
 |--------------------------------------|-2-0-3-(3)-0------------------|

N.C. A5
S S S S S S S S E E +S S S S E S S +S S E +E Q E
 
 |-------------------------------|-------------------------------|
 |-------------------------------|-------------------------------|
 |-------------------2-(2)-------|-------------------------------|
 |-5p0-7p0-----------2-(2)-------|-11-0-12-(12)---14-(14)-17--14-|
 |---------5h7p5p0-0-------0-0-0-|--0----0--(0)-0--0--(0)--0---0-|
 |-------------------------------|-------------------------------|

E. S +S S E +E E +S S E
 
 |-----------------------------------|
 |-----------------------------------|
 |-----------------------------------|
 |-19--12-(12)---11-(11)-------14-14-|
 |------0--(0)-0--0--(0)-0-(0)--0--0-|
 |-----------------------------------|

[A5]  
 
 PM--------|

E S S +S S E +E E +S S E
 
 |-----------------------------|
 |-----------------------------|
 |-------------------2-(2)-2-2-|
 |-------------2-(2)-2-(2)-2-2-|
 |-------------0-(0)-0-(0)-----|
 |-2-0-3-(3)-0-----------------|

1. 2.
S S S S S S S S E [A5]E +S S S S S S S S S S S S [A5]E Q E
 
 |--------------------------------||--------------------------||
 |-------------------------------o||--------------------------||
 |-------------------2-(2)--------||-------------------2------||
 |-5p0-7p0-----------2-(2)--------||-5p0-7p0---------2-2--2/--||
 |---------5h7p5p0-0-------0-0-0-o||---------5h7p5p0-0-0------||
 |--------------------------------||--------------------------||

E. S +E E +Q Q E. S +E E +E [A5]S S E E
 
 |----------------------------|-----------------------------*|
 |----------------------------|-----------------------------*|
 |----------------------------|---------------------2-2-2---*|
 |-11--12-(12)-14-(14)--/17---|-16--12-(12)-14-(14)-2-2-2---*|
 |--0---0--(0)--0--(0)---(0)--|--0---0--(0)--0--(0)-0-0-0---*|
 |----------------------------|-----------------------------*|

Duration Legend
 
 ---------------
 W - whole; H - half; Q - quarter; E - 8th; S - 16th; T - 32nd; X - 64th; a - acciaccatura

+ - note tied to previous; . - note dotted; .. - note double dotted
Uncapitalized letters represent notes that are staccato (1/2 duration)
Irregular groupings are notated above the duration line
Duration letters will always appear directly above the note/fret number it represents the
duration for. Duration letters with no fret number below them represent rests. Multi-
bar rests are notated in the form Wxn, where n is the number of bars to rest for. Low
melody durations appear below the staff
Tablature Legend
 
 ----------------

h - hammer-on
p - pull-off
b - bend
pb - pre-bend
r - bend release (if no number after the r, then release immediately)
/\ - slide into or out of (from/to "nowhere")
s - legato slide
S - shift slide
<n> - natural harmonic
(n) - artificial harmonic
n(n) - tapped harmonic
~ - vibrato
tr - trill
T - tap
TP - trem. picking
PM - palm muting
\n/ - tremolo bar dip; n = amount to dip
\n - tremolo bar down
n/ - tremolo bar up
/n\ - tremolo bar inverted dip
= - hold bend; also acts as connecting device for hammers/pulls
<> - volume swell (louder/softer)
x - on rhythm slash represents muted slash
o - on rhythm slash represents single note slash
Misc Legend
 
 -----------

| - bar
|| - double bar
||o - repeat start
o|| - repeat end
*| - double bar (ending)
: - bar (freetime)
$ - Segno
& - Coda
Tempo markers - <E/E./Q/Q./H/H.> = BPM(8/16=s8/s16), where s8 = swing 8ths, s16 = swing 16ths
***************************************************************************************
* Generated using Power Tab Editor by Brad Larsen - http://powertab.guitarnetwork.org *
***************************************************************************************

Important: The song above is NOT stored on the Chordie server. The original song is hosted at www.xguitar.com. Chordie works as a search engine and provides on-the-fly formatting. Chordie does not index songs against artists'/composers' will. To remove this song please click here.

Text color:
Chord color:
Chord grids: 
Font size:    
Page size: 

A A5 Asus4 B5 E5 F#5
Rate #2 of 3 versions

Login - add to songbook

SHARE PAGE  



You need to log in to post comments