Guitar Tabs, Chords and Lyrics
Major upgrade!! After one year development the new version of Chordie is now online! Please give feedback.


I Believe  Joe Satriani

Date: Mon, 18 Dec 1995 09:08:13 +0100
From: Frank Taylor <mork@Cam061312.student.utwente.nl>
Subject: I Believe by Joe Satriani TAB
More fun TAB to play from me :) This is a really great song to listen to and
I dedicate this TAB to my girlfriend Dawn who I love very much :)
Have fun!
`I Believe` by Joe Satriani from `Flying In a Blue Dream`
TAB`d by Frank A. Taylor (mork@oceana.sdsc.edu)
[Em] [C] [Dadd4]  
 
 P.M. P.M.--------------| P.M.-----------------| P.M.----

H sl sl sl
 
 E||--------------------------------------------|-------------------------------
 B||--------------------------------------------|-------------------------------
 G||--------0--------------------0--------------|-----------0--------------0----
 D||-----------5--------5--7--7-----7--9-----9--|--------2-----2--------4-------
 A||-----7--------7--7--------------------7-----|--7--3-----------3--5----------
 E||--0-----------------------------------------|-------------------------------

[C] [Dadd4]  
 
 --------------| P.M.--------------------------------------------| P.M.-

sl sl
 
 E-----------------|-----------------------------------------|------------------
 B-----------------|-----------------------------------------|------------------
 G-----------0--0--|-----------0-----------0-----------0-----|-----------0------
 D--4-----4--------|--------2-----2-----2-----2-----2-----2--|--------4-----4---
 A-----5-----------|--5--3-----------3-----------3-----------|--3--5------------
 E-----------------|-----------------------------------------|------------------

[Em]  
 
 --------------------| P.M.-| P.M.-----------| P.M.--

sl H sl
 
 E--------------------------------|--------------------------------------------|
 B--------------------------------|--------------------------------------------|
 G-----------------------0--------|--------0--------------------0--------------|
 D--------5--5--5--5--5-----------|-----------5--------5--7--7-----7--9-----9--|
 A--5--7--------------------7--5--|-----7--------7--7--------------------7-----|
 E--------------------------------|--0-----------------------------------------|

[C] [Dadd4] [C]  
 
 --------------------------| P.M.--| P.M.-|

sl sl H sl
 
 E|-----------------------------------------------|----------------------
 B|-----------------------------------------------|----------------------
 G|-----------0-----------------0-----------0-----|-----------0----------
 D|--------2-----2--2--------4-----4--4--5-----4--|--------2-----2-------
 A|--7--3--------------3--5-----------------------|--5--3-----------3----
 E|-----------------------------------------------|----------------------

[Dadd4] [Em] P.M.-| P.M.
sl sl H
 
 E-----------------------|-----------------------------------------|
 B-----------------------|-----------------------------------------|
 G-----0-----------0-----|-----------0-----------------------------|
 D--2-----2-----2-----2--|--------4-----4--4--------5-----5--7-----|
 A-----------3-----------|--3--5--------------5--7-----7--------7--|
 E-----------------------|-----------------------------------------|

I`ve been out walking for hours. I`ve got something on my mind.
How did we get here? Where are we going?
And why is life so hard?
[Em] [C] [Dadd4] [C]  
 
 P.M.-----| P.M.--|

~~~ ~~ ~~ H P sl
 
 E|--------------------|--------------------------|-------------------|
 B|--------------7-----|-----7--8--7--------------|-------------------|
 G|--X--X--9--X-----X--|--9-----------9--5--7--5--|--4--5-------------|
 D|--------------------|--------------------------|-------------2--4--|
 A|--------------------|--------------------------|----------5--------|
 E|--------------------|--------------------------|-------------------|

P.M.--|
H P P sl
 
 E|-----------------------|
 B|-----------------------|
 G|-----------------------|
 D|--4--5--4--2-----------|
 A|--------------5--5--7--|
 E|-----------------------|

Part of bars 2 and 3 od the intro are repeated here, you can hear it clearly :)
[Em]I read the stories, see the[Dadd4] photographs.[C]
World`s in a[Dadd4] crazy [Em]space.
[Em]I`ve got to hold on[C] to [Dadd4]my dreams.[C] [Dadd4]
There`s just no[C] other place.[Dadd4]
There`s just no[C] other place.[Dadd4]
[G] I believe [D] we can change [Dsus4] [D] [Dsus4] [Cadd9] an[G]ything.
I believe [Em7] [Csus2] [D] we can [Dsus4]rise [Cadd9] above [G] it.
[G] I believe [D] [Dsus4] [D] there`s a rea[Dsus4]son for [Cadd9] everyt[G]hing.
I believe [Em7] [Csus2] [D] [Dsus4]in [Cadd9] my dr[G]eam.
I`ve tried to match the words to the place where the chords are played to give
a rough idea of where Joe plays them. But you can get it best if you play it!
fade volume in---| P
 
 E|------------------------------|------------------------------------|
 B|------------------------------|------------------------------------|
 G|------------------------------|--------------------------7---------|
 D|------------------------------|------7--9--10--7--9--10-----10--9--|
 A|--7-----------------(7)t<2.5--|--10--------------------------------|
 E|------------------------------|------------------------------------|

P.M.---|
~~~ H P P
 
 E|------------------------------------------------------|-----------------
 B|------------------------------------------------------|-----------------
 G|------------------------------------------------------|------------7----
 D|--7--9--7---------------------------------------------|------7--9-------
 A|-----------10--9--10--X--9--7------7--9--10--9--7--9--|--10-------------
 E|-------------------------------10---------------------|-----------------

~~~ P.M.~~~ [Em] sh sh sh sh ah
 
 E-----------------------------|--------------------------------------------|
 B-----------------------------|--------------------------------------------|
 G-----------------------------|--X--9--9--X--11--11--X--12--12--X--11--11--|
 D--10--9--7--9--10--7---9--X--|--------------------------------------------|
 A-----------------------------|--------------------------------------------|
 E-----------------------------|--------------------------------------------|

[C] P.M. [Dadd4]P.M. [C] sh sh sh
sh sh~~~~ sh--| sl sl sl sl
 
 E|--------------------------------------------|---------------------------|
 B|-------------------12--------10-------------|---------------------------|
 G|--X--9--9----------------------------11--9--|--7--9----9--7-------------|
 D|-------------9---------9--------------------|------------------7--9--7--|
 A|--------------------------------------------|---------------------------|
 E|--------------------------------------------|---------------------------|

Dadd4 Em play fill 1
sl sl sl sl sl
 
 E|---------------------------|
 B|---------------------------|
 G|---------------------------|
 D|---------------------------|
 A|--7--9--7------------5--7--|
 E|-----------7--10--7--------|

Fill 1
 
 harm-----------|
 E|--7-----------|--------|
 B|-----7--------|--------|
 G|--------7-----|--------|
 D|-----------7--|--------|
 A|--------------|--7-----|
 E|--------------|--------|

Other choruses
3.
I`ve seen the shadows of the living.
I`ve seen them turn and walk away.
And I keep searching for the right words.
To send these thoughts away.
4.
There`s a picture I like to look at.
A picture of a beautiful face.
And I see something in her eyes.
Sends me to a better place.
Send sme to a better place.
Thats as much as you need to play until the second solo for now. If you want the
second solo then let me know and I can add it :-) Have fun!
Frank. (mork@oceana.sdsc.edu)
"I`m goin` crazy, but it`s alright"
-Joe Satriani

Important: The song above is NOT stored on the Chordie server. The original song is hosted at www.xguitar.com. Chordie works as a search engine and provides on-the-fly formatting. Chordie does not index songs against artists'/composers' will. To remove this song please click here.

Text color:
Chord color:
Chord grids: 
Font size:    
Page size: 

C Cadd9 Csus2 D Dadd4 Dsus4 Em Em7 G
Rate #3 of 5 versions

Jango Player

Login - add to songbook

SHARE PAGE  




You need to log in to post comments