Guitar Tabs, Chords and Lyrics
Major upgrade!! After one year development the new version of Chordie is now online! Please give feedback.


The Feeling   Joe Satriani

 
 |---------------------:-------||
 |-^3---^3--------^3---:-^3----||
 |--0h2--0h2-(2)---0h2-:-^2----||
 |-^0---^0-------------:-^0----||
 |---------------------:-^0----||
 |---------------------:-------||

 


 


 In Time Q=132


 

 
 |-------------------------------|---------------------------------|
 |-3---3-3-3-3---3-3-3-3-3---3-3-|-3---3-3-3-3-3----3--3-3-3---3-3-|
 |-0h2-2-2-2-0h2-2-2-2-2-0h2---2-|-0h2---2-2-2-0h2-(2)-2-2-2---2-0-|
 |-0-----------------------------|-0-------------------------0---0-|
 |-------------------------------|---------------------------------|
 |-------------------------------|---------------------------------|
 |-----------------------------|-----------------------------|
 |-3---3-3-3-3-------------3-3-|-----3-3--3--3-3-3-3-3-3-3-3-|
 |-0h2-2-2-2-2-------0-0-0-0-0-|-----0-0--0--0---0-0-0-2-2-2-|
 |-------------2-(2)-0---0-----|----------0--0---0-0-0-------|
 |-------------0-(0)---3-------|-0h3-----(3)-----------------|
 |-----------------------------|-----------------------------|
 |-------------------------------|-------------------------------|
 |-3---3-3-3-3-----(3)-------3-3-|-----3-3-3-3-----(3)---3-3-3-3-|
 |-0h2---2-2-2-----(2)-----0-0-0-|-----0-0-0-0-----(0)-2-2-2-2-2-|
 |-0-----------2b3r(2)-0---0-----|-------------------------------|
 |-----------------------3-3-----|-0h3-----3---------------------|
 |-------------------------------|-------------3b4--0------------|
 |---------------------------------|------------------------------------|
 |-3-3-3-3-3-3-----(3)-----3-3-3-3-|-----3-3--3--3----3--3-----(3)-3-3--|
 |-2-2-2-2-2-2-----(2)-----0-0-0-0-|-----0-0--0--0----0--0-----(0)------|
 |-0-----------2b3r(2)-0---0-------|-0----------------------------------|
 |-----------------------3---------|---3-----(3)---2-(2)----------------|
 |---------------------------------|-----------------------3b4--0-------|
 |-------------------------------|-------------------------------|
 |---3-3-3-3-3-----(3)-----3-3-3-|-----3-3-3---3-3-3-------3-3-3-|
 |---2---------------------0-0-0-|-----0-0-0---0-0-0-------2-2-2-|
 |-0-----------2b3r(2)-0---0-----|-------------------------0-----|
 |-----------------------3-------|-0h3---------------------------|
 |-------------------------------|---------3b4---x---3b4-0-------|
 |-------------------------------------|
 |-----3-3--3--3---3--3--3-3-3-(3)-----|
 |-----2-2--2--2---4--4--4-4-4-(4)-----|
 |-------------------------------------|
 |-------------------------------------|
 |-0-3-----(3)---3s5-(5)--------5s3-0--|
 |---------------------------|------------------------------------|
 |--3--3-3-3-3-----3-3-3-3---|-----3-3--3--3---3--3--3-3-3-(3)----|
 |--2--2-2-2-2-------------2-|-----2-2--2--2---4--4--4-4-4-(4)----|
 |-----------------0-0-0-----|------------------------------------|
 |-------------0-3-----------|------------------------------------|
 |-(0)-----------------------|-0-3-----(3)---3s5-(5)--------5s3-0-|
 |-----------------------------------|
 |--3--3-3-3-3-3-----(3)-------------|
 |--2--2-2-2-2-2-----(2)--------0-0--|
 |---------------3p0------------0-0--|
 |--------------------3p0------------|
 |-(0)--------------------3b4-0------|
 |------------------------------------|
 |-----3-3--3--3---3--3--3-3-3-(3)----|
 |-----2-2--2--2---4--4--4-4-4-(4)----|
 |------------------------------------|
 |------------------------------------|
 |-0-3-----(3)---3s5-(5)--------5s3-0-|
 |-------------------------------|----------------------------------|
 |--3--3-3-3-3-3-----(3)---------|-----3--3--3---3--3--3-3-3-(3)----|
 |--2--2-2-2-2-2-----(2)---------|-----2--2--2---4--4--4-4-4-(4)----|
 |--0--0-0-0-0-0------0--3p0---0-|----------------------------------|
 |---------------0h2---------3---|----------------------------------|
 |-(0)---------------------------|-0-3---(3)---3s5-(5)--------5s3-0-|

 


 


 [2/4] [4/4]  

 
 |-----------------|---------------------------------|
 |--3--3-3-3-3-3-3-|-----3-3--3--3----3--3-3-3-3-3-3-|
 |--2--2-2-2-2-2-0-|-----0-0--0--0----2--2-2-2-2-2-2-|
 |-----------------|---------------0-(0)-------------|
 |-----------------|-0h3-----(3)---------------------|
 |-(0)-------------|---------------------------------|
 |-------------------------------|
 |-----3-3--3--3-------3-----3-3-|
 |-----0-0--0--0---------2-2-2-2-|
 |---------------0-(0)-----------|
 |-0h3-----(3)-------------------|
 |-------------------------------|
 |--------------0-0------------------|-------------------------------|
 |-(3)--3-3-(3)-3-3-3-3-3-3-(3)--3-3-|---3-3-3-3-3-3-----3-3-3-3-3-3-|
 |-(2)--0-0-(0)-0-0-0-0-0-0-(0)--0-0-|---2-2-2-2-2-2-0h2-2-2-2-2-2-2-|
 |-----------------------------------|-0-------------0-------0-0-0-0-|
 |--0h3-----(3)--------------0h3-----|-------------------------------|
 |-----------------------------------|-------------------------------|
 |----------------------|--------*|
 |-----3-3-3----------3-|-(3)----*|
 |-0h2-2-2-2-----^4h5---|--------*|
 |-0-----0-0-0---^5-----|--------*|
 |----------------------|--------*|
 |-------------0--------|-(0)----*|


Important: The song above is NOT stored on the Chordie server. The original song is hosted at www.xguitar.com. Chordie works as a search engine and provides on-the-fly formatting. Chordie does not index songs against artists'/composers' will. To remove this song please click here.

This song is displayed as text-only. Transposing and tuning is only available for chordpro-songs.
Rate #1 of 1 versions

Jango Player

Login - add to songbook

SHARE PAGE  




You need to log in to post comments