Guitar Tabs, Chords and Lyrics
Update 25:10. 13:00. Site is back up running again. Songbooks are recovered. Woring on getting search back up..


The Mystical Potato Head Groove Thing  Joe Satriani

As recorded by Joe Satriani
Album FLYING IN A BLUE DREAM)
Music by Joe Satriani
-chord chart-
[B5]x 2 4 4 x x
[C5]x 3 5 5 x x
[D5]x 5 7 7 x x
[E5]x 7 9 9 0 x
[A5]x 7 7 x x x
B5IX
x 9 9 x x x
[Bb5]6 8 8 x x x
C5VIII
8 10 10 x x x
[G5]3 5 5 x x x
[F5]x 3 3 x x x
G5V
x 5 5 x x x
B5VII
7 9 9 x x x
[A/C#]x 4 7 x x x
E5(type 2)
x x x x 0 0
[D]x 5 4 x x x
A5(type 2)
x x 2 2 x x
Gtr I (E A D G B E) - 'Joe Satriani - w/ dist'
Gtr II (E A D G B E) - 'Joe Satriani - w/ dist'
Gtr III (E A D G B E) - 'Joe Satriani - w/ dist'
Intro
Uptempo Rock Q=176
N.C.
[4/4] Gtr I
 
 PM----| PM----|

E S S E E +E E Q W E S S E E +E E Q W
 
 ||------------------------|----------|-----------------------|-------||
 ||o-----------------------|----------|-----------------------|------o||
 ||------------------------|----------|-----------------------|-------||
 ||----------11-(11)-12----|----------|---------12-(12)-11----|-------||
 ||o----------7--(7)--7----|----------|----------7--(7)--7----|------o||
 ||--0-0-0-0---------------|----------|-0-0-0-0---------------|-------||

N.C.
PM----|
E S S E E +E E Q E E E E E +E E E
 
 |-----------------------|---------------------|
 |-----------------------|---------------------|
 |-----------------------|---------------------|
 |---------11-(11)-12----|---------------------|
 |----------7--(7)--7----|---------------------|
 |-0-0-0-0---------------|---0-3-0-5b6r(5)-3p0-|

PM----| ~
E S S E E +E E Q E E E E E E Q
 
 |-----------------------|------------------|
 |-----------------------|------------------|
 |-----------------------|------------------|
 |---------12-(12)-11----|------------------|
 |----------7--(7)--7----|-------------5----|
 |-0-0-0-0---------------|---0-3-0-6h7------|

N.C.
PM----|
E S S E E +E E Q E E E E E +E E E
 
 |-----------------------|---------------------|
 |-----------------------|---------------------|
 |-----------------------|---------------------|
 |---------11-(11)-12----|---------------------|
 |----------7--(7)--7----|---------------------|
 |-0-0-0-0---------------|---0-3-0-5b6r(5)-3p0-|

PM----|[A5]
E S S E E +E E Q E E E E E E E E
 
 |-----------------------|-----------0-(0)----|
 |-----------------------|--------------------|
 |-----------------------|-------2-3----3s2---|
 |---------12-(12)-11----|--------------------|
 |----------7--(7)--7----|---2-3--------------|
 |-0-0-0-0---------------|--------------------|

N.C.
 
 PM----| PM----|

E S S E E +E E Q E E E E E +E E E E S S E E +E E Q
 
 |-----------------------|---------------------|------------------------|
 |-----------------------|---------------------|------------------------|
 |-----------------------|---------------------|------------------------|
 |---------11-(11)-12----|---------------------|---------12-(12)-11-----|
 |----------7--(7)--7----|---------------------|----------7--(7)--7-----|
 |-0-0-0-0---------------|---0-3-0-5b6r(5)-3p0-|-0-0-0-0----------------|

N.C.
~~~ PM----|
E E E E E E Q E S S E E +E E Q E E E E E +E E E
 
 |--------------------|-----------------------|---------------------|
 |--------------------|-----------------------|---------------------|
 |--------------------|-----------------------|---------------------|
 |--------------------|---------11-(11)-12----|---------------------|
 |--------------------|----------7--(7)--7----|---------------------|
 |---0-3-0-6b7-7-6b7--|-0-0-0-0---------------|---0-3-0-5b6r(5)-3p0-|

N.C. A5
Gtr II
\7____/
H Q E a +E +W
 
 |---------------------------------|---------------------||
 |---------------------------------|---------------------||
 |----------------------<4>--(<4>)-|-(<4>)---------------||
 |---------------------------------|---------------------||
 |---------------------------------|---------------------||
 |---------------------------------|---------------------||

|
| Gtr I
| PM----|
| E S S E E +E E Q E E E E E E E E
 
 |---------------------------------|---------------0-----||
 |---------------------------------|---------------------||
 |---------------------------------|-----------2-3---3---||
 |---------12-(12)-11--------------|---------------------||
 |----------7--(7)--7--------------|-------2-3---------3-||
 |-0-0-0-0-------------------------|---------------------||

[B5] ~~~~~~~~~~~~~~
+H. +Q +W
 
 |-------------------------|-----------------------|
 |-------------------------|-----------------------|
 |-(<4>)-----------(<4>)---|-(<4>)-----------------|
 |-------------------------|-----------------------|
 |-------------------------|-----------------------|
 |-------------------------|-----------------------|

|
 
 | PM------------------------------|

| E E E E E E E E E E E E E E E E
 
 |-------------------------|-------------0---------|
 |-------------------------|---4---4-------0h1-----|
 |---------4-----4---------|-------------------2---|
 |-------4-----4---------4-|-----------------------|
 |---2-------3-------2-----|---------2-0-----------|
 |-------------------------|-----------------------|

[B5] ~~~~~~~~~~~~~~~~~~~~~~~~~~
+W +Q. E E E E E
 
 |---------------------|----------------------|
 |---------------------|-----------/5-4-------|
 |-(<4>)---------------|-(<4>)----------5-4---|
 |---------------------|--------------------5-|
 |---------------------|----------------------|
 |---------------------|----------------------|

|
 
 | PM--------------------------|

| E E E E E E E E E E E E E E E E
 
 |---------------------|--------------0-------|
 |---------------------|---4---4--------0h1---|
 |---------4-----4-----|--------------------2-|
 |-------4-----4-----4-|----------------------|
 |---2-------3-----2---|---------2--0---------|
 |---------------------|----------------------|

~~~
Q +E +E +E +E +Q +W
 
 |-------------------------------|-------------------|
 |-------------------------------|-------------------|
 |-------------------------------|-------------------|
 |-4---(4)b5r(4)-(4)-(4)b6r(4)---|-(4)---------------|
 |-------------------------------|-------------------|
 |-------------------------------|-------------------|

|
 
 | PM------------------------------------|

| E E E E E E E E E E E E E E E E
 
 |-------------------------------|-----------0-------|
 |-------------------------------|--4--4-------0h1---|
 |------4-------------4----------|-----------------2-|
 |---4------------4------------4-|-------------------|
 |-2----------3-------------2----|-------2-0---------|
 |-------------------------------|-------------------|

[B5]Gtr I[C5] [B5] [E5]
q E e +E E Q +H.. +E W
| | | | | | | |
[/] [/] [/] [/] [/] [/] [/] [/] 
Gtr II Gtr I
\7
 
 PM--| PM----|

Q. E +E E Q +H +E +Q. E S S E E E E E E
 
 |-------------------|---------------------||-------------------|
 |-------------------|---------------------||-------------------|
 |-------------------|---------------------||---------9---------|
 |-------------------|---------------------||-9-------9---------|
 |-\2-----3-(3)-3-2--|-(2)-----(2)-(2)-----||-7-----------------|
 |-------------------|---------------------||---0-0-0---0-0-0-0-|

Gtr[G5] I[F#5] [E5] [F#5] [E5]
 
 PM----------|

a E S S +S S E a Q Q
 
 |--------------------------------|
 |--------------------------------|
 |--------------------------------|
 |-11s12---11-(11)----9--9s11--9--|
 |--9s10-9---------7-(7)-7s=9--7--|
 |--------------------------------|

|
| Gtr II
| W
 
 |--------------------------------|
 |--------------------------------|
 |--------------------------------|
 |--------------------------------|
 |--------------------------------|
 |--------------------------------|

[D] PM--| PM|[B5] [Bm11]
E S S E E E E E E E E E E Q E E
 
 |-------------------|----------------0------0------|
 |---------------7---|----------------3------3------|
 |---------7-----7---|-----4----------2------2------|
 |---------7-----7---|-----4------------------------|
 |-5-5-5-5---5-5---5S|=2--------2--2------------2---|
 |-------------------|------------------------------|

|
| W E E E E E Q E
 
 |-------------------|--------<12>-------<7>--------|
 |-------------------|---<12>--------<7>-------<7>--|
 |-------------------|------------------------------|
 |-------------------|------------------------------|
 |-------------------|------------------------------|
 |-------------------|------------------------------|

[E5] [G5] [F#5] [E5] [F#5]  
 
 PM--| PM----| PM----------|

E S S E E E E E E a E S S +S S E a Q Q
 
 |-------------------------|--------------------------------|
 |-------------------------|--------------------------------|
 |--------------9----------|--------------------------------|
 |--9-----------9----------|-11s12---11-(11)----9--9s11--9--|
 |--7----------------------|--9s10-9---------7-(7)-7s=9--7--|
 |-----0-0--0------0-0-0-0-|--------------------------------|

|
| Q E E H W
 
 |-<7>---------<5>---------|--------------------------------|
 |---------<5>-------------|--------------------------------|
 |-------------------------|--------------------------------|
 |-------------------------|--------------------------------|
 |-------------------------|--------------------------------|
 |-------------------------|--------------------------------|

[D] PM--| PM|[B5] [Bm11]
E S S E E E E E E E E E E Q E E
 
 |-------------------|---------0--0----|
 |---------------7---|---------3--3----|
 |---------7-----7---|---4-----2--2----|
 |---------7-----7---|---4-------------|
 |-5-5-5-5---5-5---5S|=2---2-2------2--|
 |-------------------|-----------------|

|
| W W
 
 |-------------------|-----------------|
 |-------------------|-----------------|
 |-------------------|-----------------|
 |-------------------|-----------------|
 |-------------------|-----------------|
 |-------------------|-----------------|

[E5] [G5] [F#5] [E5] [F#5] [E5]  
 
 PM--| PM----| PM----------|

E S S E E E E E E a E S S +S S E a Q Q
 
 |-------------------|--------------------------------|
 |-------------------|--------------------------------|
 |---------9---------|--------------------------------|
 |-9-------9---------|-11s12---11-(11)----9--9s11--9--|
 |-7-----------------|--9s10-9---------7-(7)-7s=9--7--|
 |---0-0-0---0-0-0-0-|--------------------------------|

|
| W W
 
 |-------------------|--------------------------------|
 |-------------------|--------------------------------|
 |-------------------|--------------------------------|
 |-------------------|--------------------------------|
 |-------------------|--------------------------------|
 |-------------------|--------------------------------|

[D] PM--| PM|[B5] [Bm11]
E S S E E E E E E E E E E Q E E
 
 |-------------------|----------------0------0------|
 |---------------7---|----------------3------3------|
 |---------7-----7---|-----4----------2------2------|
 |---------7-----7---|-----4------------------------|
 |-5-5-5-5---5-5---5S|=2--------2--2------------2---|
 |-------------------|------------------------------|

|
| W E E E E E Q E
 
 |-------------------|--------<12>-------<7>--------|
 |-------------------|---<12>--------<7>-------<7>--|
 |-------------------|------------------------------|
 |-------------------|------------------------------|
 |-------------------|------------------------------|
 |-------------------|------------------------------|

[E5] [G5] [F#5] [E5] [F#5] [E5]  
 
 PM--| PM----| PM----------|

E S S E E E E E E a E S S +S S E a Q Q
 
 |-------------------------|--------------------------------|
 |-------------------------|--------------------------------|
 |--------------9----------|--------------------------------|
 |--9-----------9----------|-11s12---11-(11)----9--9s11--9--|
 |--7----------------------|--9s10-9---------7-(7)-7s=9--7--|
 |-----0-0--0------0-0-0-0-|--------------------------------|

|
| Q E E H W
 
 |-<7>---------<5>---------|--------------------------------|
 |---------<5>-------------|--------------------------------|
 |-------------------------|--------------------------------|
 |-------------------------|--------------------------------|
 |-------------------------|--------------------------------|
 |-------------------------|--------------------------------|

[D] PM--| PM|[B5] [Bm11]
E S S E E E E E E E E E E Q E E
 
 |-------------------|------------0---0-----||
 |---------------7---|------------3---3-----||
 |---------7-----7---|----4-------2---2-----||
 |---------7-----7---|----4-----------------||
 |-5-5-5-5---5-5---5S|=2-----2--2--------2--||
 |-------------------|----------------------||

|
| H Q E E E E E E E E Q
 
 |-----------------0-|-5/-----------0-------||
 |-------------------|----0-12\-0-----------||
 |-------------------|------------4---------||
 |-------------------|----------------------||
 |-------------------|----------------x\----||
 |-------------------|----------------------||

[E5]Gtr II[G5] [F#5] [E5] [F#5] [E5]
~~~~~~~~~~~~
E Q. E E E E +Q E E +Q Q
 
 |-------------------14b15-12-|----(12)-------12----14b16---(14)-----|
 |--------------<12>----------|--------------------------------------|
 |----------------------------|--------------------------------------|
 |---x/-----------------------|--------------------------------------|
 |----------------------------|--------------------------------------|
 |----------------------------|--------------------------------------|

|
| Gtr I
 
 | PM---| PM-----------| PM----------|

| E S S E E E E E E a E S S +S S E a Q Q
 
 |----------------------------|--------------------------------------|
 |----------------------------|--------------------------------------|
 |----------9-----------------|--------------------------------------|
 |-9--------9-----------------|-11s=12----11-(11)----9----9s=11---9--|
 |-7--------------------------|--9s=10--9---------7-(7)---7s==9---7--|
 |---0--0-0---0---0---0-----0-|--------------------------------------|

[D]Q E E E E E E [B5] E E Q [Bm11] E +E E E
 
 |---------------------16-17-|-19-19b21-----16pb17r(16)-------|
 |------------17-19b20-------|--------------------------17----|
 |---------18----------------|--------------------------------|
 |---------------------------|--------------------------------|
 |---------------------------|--------------------------------|
 |---------------------------|--------------------------------|

|
| PM--| PM|
| E S S E E E E E E E E E E Q E E
 
 |---------------------------|---------------0-----------0----|
 |----------------------7----|---------------3-----------3----|
 |----------7-----------7----|-----4---------2-----------2----|
 |----------7-----------7----|-----4--------------------------|
 |-5-5-5-5-----5--5--------5S|==2-------2-2----------------2--|
 |---------------------------|--------------------------------|

[E5] ~~ ~~~~~~~[G5] [F#5] [E5] [F#5] [E5]
Q E E +H E E +E E E E +E E
 
 |-------------------------|----------------------------------------------|
 |--------17---------------|-------14b15r===(14)---12---------------------|
 |-16--------16-(16)-------|--------------------------------13b14r(13)p11-|
 |-------------------------|----------------------------------------------|
 |-------------------------|----------------------------------------------|
 |-------------------------|----------------------------------------------|

|
 
 | PM--| PM-----| PM-------------|

| E S S E E E E E E a E S S +S S E a Q Q
 
 |-------------------------|----------------------------------------------|
 |-------------------------|----------------------------------------------|
 |------------9------------|----------------------------------------------|
 |--9---------9------------|-11s12-------11-(11)----9--9s11---------9-----|
 |--7----------------------|--9s10--9------------7-(7)-7s=9---------7-----|
 |----0-0--0------0--0-0-0-|----------------------------------------------|

[D] ~[B5] [Bm11]
Q E E +E E E E +E +E +E +E +S +S +S +S +E E
 
 |------------------------|---------------------------------------------------|
 |------------------------|---------------------------------------------------|
 |---------9-(9)s7---6b7==|=(6)r(6)b7==(6)r(6)b7==(6)r(6)b7==(6)r(6)-(6)\-----|
 |-----------------7------|---------------------------------------------------|
 |------------------------|---------------------------------------------------|
 |------------------------|---------------------------------------------------|

|
| PM--| PM-|
| E S S E E E E E E E E E E Q E E
 
 |------------------------|------------------------0------------------0-------|
 |-----------------7------|------------------------3------------------3-------|
 |---------7-------7------|------4-----------------2------------------2-------|
 |---------7-------7------|------4--------------------------------------------|
 |-5-5-5-5----5--5---5S===|==2----------2---2-----------------------------2---|
 |------------------------|---------------------------------------------------|

[E5] ~~~~~~~[G5] [F#5] [E5] [F#5] [E5]
Q E E +Q Q W
 
 |-19----------------------|--------------------------------|
 |-------------------------|--------------------------------|
 |--------21-21-(21)-------|--------------------------------|
 |-------------------------|--------------------------------|
 |-------------------------|--------------------------------|
 |-------------------------|--------------------------------|

|
 
 | PM--| PM-----| PM----------|

| E S S E E E E E E a E S S +S S E a Q Q
 
 |-------------------------|--------------------------------|
 |-------------------------|--------------------------------|
 |------------9------------|--------------------------------|
 |--9---------9------------|-11s12---11-(11)----9--9s11--9--|
 |--7----------------------|--9s10-9---------7-(7)-7s=9--7--|
 |----0-0--0------0--0-0-0-|--------------------------------|

[D]E E Q E E E E [B5] Q E E [Bm11] +H
 
 |-------<12>-------<7>------|-----------<5>-(<5>)-------|
 |---0----------<7>-----0-<7>|-<5>---<5>-----------------|
 |---------------------------|---------------------------|
 |---------------------------|---------------------------|
 |---------------------------|---------------------------|
 |---------------------------|---------------------------|

|
| PM--| PM-|
| E S S E E E E E E E E E E Q E E
 
 |---------------------------|-----------------0----0----|
 |----------------------7----|-----------------3----3----|
 |------------7---------7----|-----4-----------2----2----|
 |------------7---------7----|-----4---------------------|
 |-5-5-5---5-----5---5-----5S|==2-----2---2-----------2--|
 |---------------------------|---------------------------|

[B5] S S S S S S S S S S S S S S S S [E5]W
 
 ||-------------------h12--------------------------------h12-|---------------|
 ||o--------------h10-----h10------------------------h10-----|---------------|
 ||------------h7-------------h7------------------h7---------|---------------|
 ||--------h11-------------------h11----------h11------------|---------------|
 ||o----h9---------------------------h9----h9----------------|---------------|
 ||--h7---------------------------------h7-------------------|---------------|

|Each time you play these they are played only with the LEFT HAND with the
|Righthand behind the left hand holding the neck
| PM|
| E E Q E E Q E E E E Q Q
 
 ||----------------------------------------------------------|---------0-----|
 ||o---------------------------------------------------------|---------0-----|
 ||---4----------------------------------4-------------------|---9-----------|
 ||---4----------------------------------4-------------------|---9--------9--|
 ||o--2----------------------------------2-------------------|---7--------7--|
 ||----------------------------------------------------------|---0-0-0-------|

[D5] S S S S S S S S S S S S S S S S [E5]W
 
 |---------------------h16-------------------------------------h14-|-----------------||
 |-----------------h14-----h14-----------------------------h14-----|----------------o||
 |-------------h11-------------h11---------------------h11---------|-----------------||
 |---------h14---------------------h14-------------h14-------------|-----------------||
 |-----h12-----------------------------h12-----h12-----------------|----------------o||
 |-h10-------------------------------------h10---------------------|-----------------||

|
| PM|
| E E Q E E Q E E E E Q Q
 
 |-----------------------------------------------------------------|---------0-------||
 |-----------------------------------------------------------------|---------0------o||
 |---7---------------------------------------7---------------------|---9-------------||
 |---7---------------------------------------7---------------------|---9--------9----||
 |---5---------------------------------------5---------------------|---7--------7---o||
 |-----------------------------------------------------------------|---0-0-0---------||

[E5]E S S S S S S S S S S S S S S [G5] S S [F#5] S S S [E5] S S S [F#5] S S S S [E5] S S S S
 
 |---<5>-<5>-<5>-<5>-<5>-<5>-<5>-<5>-<5>-<5>-<5>-<5>-<5>-<5>-|----<5>-<5>-<5>-<5>--<5>-<5>-<5>-<5>---<5>-<5>-<5>-<5>-<5>-<5>-<5>-<5>-|
 |-----------------------------------------------------------|-----------------------------------------------------------------------|
 |-----------------------------------------------------------|-----------------------------------------------------------------------|
 |-----------------------------------------------------------|-----------------------------------------------------------------------|
 |-----------------------------------------------------------|-----------------------------------------------------------------------|
 |-----------------------------------------------------------|-----------------------------------------------------------------------|

|
 
 | PM-----| PM---------------------| PM--------------|

| E S S E E E E E E a E S S +S S E a Q Q
 
 |-----------------------------------------------------------|-----------------------------------------------------------------------|
 |-----------------------------------------------------------|-----------------------------------------------------------------------|
 |--------------------9--------------------------------------|-----------------------------------------------------------------------|
 |-9------------------9--------------------------------------|-11s12----------11--(11)------9------9s11---------------9--------------|
 |-7---------------------------------------------------------|--9s10-------9------------7--(7)-----7s=9---------------7--------------|
 |----0---0---0---------------0-------0-------0-------0------|-----------------------------------------------------------------------|

[D] S S S S S S S S S S S S S S S S
 
 |-<7>-<7>---------<7>----------------------------------------------|
 |---------<7>-<7>-----<7>-<7>-<7>-<7>-<7>-<7>-<7>-<7>-<7>-<7><7>---|
 |------------------------------------------------------------------|
 |------------------------------------------------------------------|
 |------------------------------------------------------------------|
 |------------------------------------------------------------------|

|
 
 | PM-----| PM-----|

| E S S E E E E E E
 
 |------------------------------------------------------------------|
 |--------------------------------------------------7---------------|
 |--------------------------7-----------------------7---------------|
 |--------------------------7-----------------------7---------------|
 |--5-------5---5---5---------------5-------5---------------5S======|
 |------------------------------------------------------------------|

[B5] S S S S S S S S [Bm11] S S S S S S E [E5]W
 
 |-------------------------------------------<12>-<12>-0-0-0-|-0-----------------|
 |-<7>-<7>-x-x-<12>-<12>-<12>-<12>-<12>-<12>-----------------|-------------------|
 |-----------------------------------------------------------|-------------------|
 |-----------------------------------------------------------|-------------------|
 |-----------------------------------------------------------|-------------------|
 |-----------------------------------------------------------|-------------------|

|
 
 | PM--| PM----|

| E E E E Q E E E S S E E E E E E
 
 |-----------------------------------0-----------------0-----|-------------------|
 |-----------------------------------3-----------------3-----|-------------------|
 |---------4-------------------------2-----------------2-----|---------9---------|
 |---------4-------------------------------------------------|-9-------9---------|
 |--2------------2---------2-------------------------------2-|-7-----------------|
 |-----------------------------------------------------------|---0-0-0---0-0-0-0-|

[G5] [F#5] [E5] [F#5] [E5] [D] [B5] [Bm11] \2.5
+E E E E E E E E E E E a +E +H +Q. E +H
 
 |----(0)-x/------0-----0-----x\--------|--------------------------------|---------------------------|
 |-------------------------------0-0-x/-|-0-0----------------------------|---------------------------|
 |--------------------------------------|-------2b4r(2)b4==(2)-(2)-------|-(2)-----[2]-(2)r----------|
 |--------------------------------------|--------------------------------|---------------------------|
 |--------------------------------------|--------------------------------|---------------------------|
 |--------------------------------------|--------------------------------|---------------------------|

|
 
 | PM-----------| PM--| PM-|

| a E S S +S S E a Q Q E S S E E E E E E E E E E Q E E
 
 |--------------------------------------|--------------------------------|--------------0-----0------|
 |--------------------------------------|----------------------------7---|--------------3-----3------|
 |--------------------------------------|-------------------7--------7---|-----4--------2-----2------|
 |-11s12-----11-(11)----9--9s11----9----|-------------------7--------7---|-----4---------------------|
 |--9s10--9----------7-(7)-7s=9----7----|-5-5-5-5---------------5--5---5S|==2----2--2-----------2----|
 |--------------------------------------|--------------------------------|---------------------------|

[E5] [G5] ~~~[F#5]~[E5] [F#5] [E5]
Q E E E E E E +Q E +E H
 
 |-----------------14b15-12-|----(12)-------14b16---(14)----------|
 |--------------12----------|-------------------------------------|
 |--------------------------|-------------------------------------|
 |--------------------------|-------------------------------------|
 |--------------------------|-------------------------------------|
 |-/xs====x-0---------------|-------------------------------------|

|
 
 | PM--| PM---------| PM------------|

| E S S E E E E E E a E S S +S S E a Q Q
 
 |--------------------------|-------------------------------------|
 |--------------------------|-------------------------------------|
 |----------9---------------|-------------------------------------|
 |--9-------9---------------|-11s=12----11-(11)-------9--9s11--9--|
 |--7-----------------------|--9s=10--9-----------7--(7)-7s=9--7--|
 |----0-0-0---0--0--0-----0-|-------------------------------------|

[D]Q E E E E E E [B5] E e Q [Bm11] E +E E E
 
 |---------------------16-17-|-19-19b21-----16pb17r(16)--------|
 |------------17-19b20-------|--------------------------17-----|
 |---------18----------------|-----------------------------16--|
 |---------------------------|---------------------------------|
 |---------------------------|---------------------------------|
 |---------------------------|---------------------------------|

|
| PM--| PM|
| E S S E E E E E E E E E E Q E E
 
 |---------------------------|---------------0-----------0-----|
 |----------------------7----|---------------3-----------3-----|
 |----------7-----------7----|-----4---------2-----------2-----|
 |----------7-----------7----|-----4---------------------------|
 |-5-5-5-5-----5--5--------5S|==2-------2-2-----------------2--|
 |---------------------------|---------------------------------|

[E5] ~~~~~~~ ~~~~~~~[G5]~~~~~[F#5] [E5] [F#5] [E5]
E +E E E +Q E E +Q E E +E E Q
 
 |---------------------------------|---------------------------------------|
 |---------------------------17----|---------------17---------------17\----|
 |-18b19r(18)---16-16-(16)------16-|----(16)-------------16----(16)--------|
 |---------------------------------|---------------------------------------|
 |---------------------------------|---------------------------------------|
 |---------------------------------|---------------------------------------|

|
 
 | PM---| PM------| PM----------|

| E S S E E E E E E a E S S +S S E a Q Q
 
 |---------------------------------|---------------------------------------|
 |---------------------------------|---------------------------------------|
 |------------------9--------------|---------------------------------------|
 |--9---------------9--------------|-11s=12----11-(11)----9--9s=11------9--|
 |--7------------------------------|--9s=10--9---------7-(7)-7s==9------7--|
 |---------0--0--0------0--0--0--0-|---------------------------------------|

[D]E E Q E E E E [B5] E E E E [Bm11] +Q Q
 
 |----------<12>-------<7>--------|-<7>---------<5>-(<5>)--------|
 |---<12>----------<7>-----<7>-<7>|-----<7>-<5>------------x/----|
 |--------------------------------|------------------------------|
 |--------------------------------|------------------------------|
 |--------------------------------|------------------------------|
 |--------------------------------|------------------------------|

|
| PM---| PM-|
| E S S E E E E E E E E E E Q E E
 
 |--------------------------------|-------------------0----0-----|
 |--------------------------7-----|-------------------3----3-----|
 |---------------7----------7-----|------4------------2----2-----|
 |---------------7----------7-----|------4-----------------------|
 |-5---5--5---5-----5---5-------5S|==2-------2---2------------2--|
 |--------------------------------|------------------------------|

[E5]PM ~~~~~~~[G5]~~~~~[F#5] [E5] [F#5] [E5] ~~~~~
E E Q E E E E +Q H +Q
 
 |----------------14b15-12-|----(12)-------17b19==============(17)r--|
 |-0-----------12----------|-----------------------------------------|
 |-------------------------|-----------------------------------------|
 |-------------------------|-----------------------------------------|
 |-------------------------|-----------------------------------------|
 |-------------------------|-----------------------------------------|

|
 
 | PM--| PM---------| PM-------------|

| E S S E E E E E E a E S S +S S E a Q Q
 
 |-------------------------|-----------------------------------------|
 |-------------------------|-----------------------------------------|
 |---------9---------------|-----------------------------------------|
 |-9-------9---------------|-11s=12----11-(11)-------9--9s11----9----|
 |-7-----------------------|--9s=10--9------------7-(7)-7s=9----7----|
 |---0-0-0---0--0--0-----0-|-----------------------------------------|

[D]E E +E +E +E +E +Q [B5] E E Q [Bm11] Q +E E
 
 |---21b22r==(21)b22==(21)r(21)b22==(21)r(21)---|-19-17-19---19b21r=(19)-17--|
 |----------------------------------------------|----------------------------|
 |----------------------------------------------|----------------------------|
 |----------------------------------------------|----------------------------|
 |----------------------------------------------|----------------------------|
 |----------------------------------------------|----------------------------|

|
 
 | PM-----| PM-----|

| E S S E E E E E E E E E E Q E E
 
 |----------------------------------------------|-------------0-------0------|
 |-----------------------------------------7----|-------------3-------3------|
 |----------------------7------------------7----|-----4-------2-------2------|
 |----------------------7------------------7----|-----4----------------------|
 |-5--5----5---5-------------5--------5-------5S|==2-----2-2--------------2--|
 |----------------------------------------------|----------------------------|

[E5] ~~~~~~~~~~~~~~
Q E E +Q +E +E
 
 |-19-----------------------------|
 |--------17-17-(17)---(17)-(17)\-|
 |--------------------------------|
 |--------------------------------|
 |--------------------------------|
 |--------------------------------|

|
 
 | PM--| PM--------|

| E S S E E E E E E
 
 |--------------------------------|
 |--------------------------------|
 |------------9-------------------|
 |--9---------9-------------------|
 |--7-----------------------------|
 |----0-0--0------0--0---0----0---|

[G5] [F#5] [E5] [F#5] [E5]  
 
 |--3---| |--3--| |-3--|

Q E S S S E S S S E S S S
 
 |-------------------16h=17p16p===0-10h12p10p0-9h10p9p=|
 |-----------------------------------------------------|
 |-----------------------------------------------------|
 |-----------------------------------------------------|
 |-----------------------------------------------------|
 |-----------------------------------------------------|

|
 
 | PM----------|

| a E S S +S S E a Q Q
 
 |-----------------------------------------------------|
 |-----------------------------------------------------|
 |-----------------------------------------------------|
 |-11s12---11-(11)----9--------9s11----------9---------|
 |--9s10-9---------7-(7)-------7s=9----------7---------|
 |-----------------------------------------------------|

[D] [B5] ~~~~~[Bm11]~~~~~~~~~
 
 |--3--| |-3-| |-3-|

E S S S E S S S E S S S S S E E +E +H +E E
 
 |-0-7h9p==7p0---------------------|---------------------------||
 |-------------7h9p7p0-------------|---------------------------||
 |---------------------7h9p7s6h7s4h|=6b7==(6)-(6)------(6)r/---||
 |---------------------------------|---------------------------||
 |---------------------------------|---------------------------||
 |---------------------------------|---------------------------||

|
 
 | PM------| PM|

| E S S E E E E E E E E E E Q E E
 
 |---------------------------------|----------------0---0------||
 |---------------------------7-----|----------------3---3------||
 |-------------7-------------7-----|-------4--------2---2------||
 |-------------7-------------7-----|-------4-------------------||
 |-5-5---5---5-------5-5---------5S|=2---------2--2----------2-||
 |---------------------------------|---------------------------||

$
[B5] S S S S S S S S S S S S S S S S [E5]W
 
 ||-------------------h12--------------------------------h12-|---------------|
 ||o--------------h10-----h10------------------------h10-----|---------------|
 ||------------h7-------------h7------------------h7---------|---------------|
 ||--------h11-------------------h11----------h11------------|---------------|
 ||o----h9---------------------------h9----h9----------------|---------------|
 ||--h7---------------------------------h7-------------------|---------------|

|
| PM|
| E E Q E E Q E E E E Q Q
 
 ||----------------------------------------------------------|---------0-----|
 ||o---------------------------------------------------------|---------0-----|
 ||---4----------------------------------4-------------------|---9-----------|
 ||---4----------------------------------4-------------------|---9--------9--|
 ||o--2----------------------------------2-------------------|---7--------7--|
 ||----------------------------------------------------------|---0-0-0-------|

[D5] S S S S S S S S S S S S S S S S [E5]W
 
 |---------------------h16-------------------------------------h14-|-----------------||
 |-----------------h14-----h14-----------------------------h14-----|----------------o||
 |-------------h11-------------h11---------------------h11---------|-----------------||
 |---------h14---------------------h14-------------h14-------------|-----------------||
 |-----h12-----------------------------h12-----h12-----------------|----------------o||
 |-h10-------------------------------------h10---------------------|-----------------||

|
| PM|
| E E Q E E Q E E E E Q Q
 
 |-----------------------------------------------------------------|---------0-------||
 |-----------------------------------------------------------------|---------0------o||
 |---7---------------------------------------7---------------------|---9-------------||
 |---7---------------------------------------7---------------------|---9--------9----||
 |---5---------------------------------------5---------------------|---7--------7---o||
 |-----------------------------------------------------------------|---0-0-0---------||

[B5]Gtr III
S S S S S S S S S S S S S S S S
 
 |-16-17p=16p12------12--16-17p=16p12----12--16-17p=16p=12-|
 |---------------17-------------------17-------------------|
 |---------------------------------------------------------|
 |---------------------------------------------------------|
 |---------------------------------------------------------|
 |---------------------------------------------------------|

|
| Gtr II
| S S S S S S S S S S S S S S S S
 
 |------------------h12--------------------------------h12-|
 |--------------h10-----h10------------------------h10-----|
 |-----------h7-------------h7------------------h7---------|
 |-------h11-------------------h11----------h11------------|
 |----h9---------------------------h9----h9----------------|
 |-h7---------------------------------h7-------------------|

|
| Gtr I
| E E Q E E Q
 
 |---------------------------------------------------------|
 |---------------------------------------------------------|
 |--4----------------------------------4-------------------|
 |--4----------------------------------4-------------------|
 |--2----------------------------------2-------------------|
 |---------------------------------------------------------|

[E5] S S S S S S S S S S S S S S S S
 
 |----12-16-17p16p12----12-16-17p16p12----12-16-17p==|
 |-17----------------17----------------17------------|
 |---------------------------------------------------|
 |---------------------------------------------------|
 |---------------------------------------------------|
 |---------------------------------------------------|

|
| W
 
 |---------------------------------------------------|
 |---------------------------------------------------|
 |---------------------------------------------------|
 |---------------------------------------------------|
 |---------------------------------------------------|
 |---------------------------------------------------|

|
| PM---|
| E E E E Q Q
 
 |--------------------------0------------------------|
 |--------------------------0------------------------|
 |--------9------------------------------------------|
 |--------9-----------------------------9------------|
 |--------7-----------------------------7------------|
 |--------0-----0-----0------------------------------|

[D5] S S S S S S S S S S S S S S S S
 
 |--16p=12------12--16--17p=16p=12------12--16--17p=16p=12------12-|
 |----------17----------------------17----------------------17-----|
 |-----------------------------------------------------------------|
 |-----------------------------------------------------------------|
 |-----------------------------------------------------------------|
 |-----------------------------------------------------------------|

|
| S S S S S S S S S S S S S S S S
 
 |---------------------h16-------------------------------------h14-|
 |-----------------h14-----h14-----------------------------h14-----|
 |-------------h11-------------h11---------------------h11---------|
 |---------h14---------------------h14-------------h14-------------|
 |-----h12-----------------------------h12-----h12-----------------|
 |-h10-------------------------------------h10---------------------|

|
| E E Q E E Q
 
 |-----------------------------------------------------------------|
 |-----------------------------------------------------------------|
 |---7---------------------------------------7---------------------|
 |---7---------------------------------------7---------------------|
 |---5---------------------------------------5---------------------|
 |-----------------------------------------------------------------|

[E5] S S S S S S S S S S S S S S S S
 
 |-16-17p16p12----12-16-17p16p12----12-16-17p16p12--|
 |-------------17----------------17-----------------|
 |--------------------------------------------------|
 |--------------------------------------------------|
 |--------------------------------------------------|
 |--------------------------------------------------|

|
| W
 
 |--------------------------------------------------|
 |--------------------------------------------------|
 |--------------------------------------------------|
 |--------------------------------------------------|
 |--------------------------------------------------|
 |--------------------------------------------------|

|
| PM---|
| E E E E Q Q
 
 |--------------------------0-----------------------|
 |--------------------------0-----------------------|
 |--------9-----------------------------------------|
 |--------9-----------------------------9-----------|
 |--------7-----------------------------7-----------|
 |--------0-----0-----0-----------------------------|

[B5] S S S S S S S S S S S S S S S S
 
 |----12--16-17p=16p=12-----12--16-17p16p12-----12--16--17p|
 |-17--------------------17------------------17------------|
 |---------------------------------------------------------|
 |---------------------------------------------------------|
 |---------------------------------------------------------|
 |---------------------------------------------------------|

|
| S S S S S S S S S S S S S S S S
 
 |------------------h12--------------------------------h12-|
 |--------------h10-----h10------------------------h10-----|
 |-----------h7-------------h7------------------h7---------|
 |-------h11-------------------h11----------h11------------|
 |----h9---------------------------h9----h9----------------|
 |-h7---------------------------------h7-------------------|

|
| E E Q E E Q
 
 |---------------------------------------------------------|
 |---------------------------------------------------------|
 |--4----------------------------------4-------------------|
 |--4----------------------------------4-------------------|
 |--2----------------------------------2-------------------|
 |---------------------------------------------------------|

[E5] S S S S S S S S S S S S S S S S
 
 |-16p12----12-16-17p16p12----12-16-17p16p12----12--|
 |-------17----------------17----------------17-----|
 |--------------------------------------------------|
 |--------------------------------------------------|
 |--------------------------------------------------|
 |--------------------------------------------------|

|
| W
 
 |--------------------------------------------------|
 |--------------------------------------------------|
 |--------------------------------------------------|
 |--------------------------------------------------|
 |--------------------------------------------------|
 |--------------------------------------------------|

|
| PM---|
| E E E E Q Q
 
 |--------------------------0-----------------------|
 |--------------------------0-----------------------|
 |--------9-----------------------------------------|
 |--------9-----------------------------9-----------|
 |--------7-----------------------------7-----------|
 |--------0-----0-----0-----------------------------|

[D5] S S S S S S S S S S S S S S S S
 
 |--16--17p=16p=12------12--16--17p=16p=12------12--16--17p=16p=12-|
 |------------------17----------------------17---------------------|
 |-----------------------------------------------------------------|
 |-----------------------------------------------------------------|
 |-----------------------------------------------------------------|
 |-----------------------------------------------------------------|

|
| S S S S S S S S S S S S S S S S
 
 |---------------------h16-------------------------------------h14-|
 |-----------------h14-----h14-----------------------------h14-----|
 |-------------h11-------------h11---------------------h11---------|
 |---------h14---------------------h14-------------h14-------------|
 |-----h12-----------------------------h12-----h12-----------------|
 |-h10-------------------------------------h10---------------------|

|
| E E Q E E Q
 
 |-----------------------------------------------------------------|
 |-------------------------------------------------------------

Important: The song above is NOT stored on the Chordie server. The original song is hosted at www.xguitar.com. Chordie works as a search engine and provides on-the-fly formatting. Chordie does not index songs against artists'/composers' will. To remove this song please click here.

Text color:
Chord color:
Chord grids: 
Font size:    
Page size: 

A/C# A5 B5 Bb5 Bm11 C5 D D5 E5 F#5 F5 G5
Rate #5 of 6 versions

Login - add to songbook

SHARE PAGE  




You need to log in to post comments