Guitar Tabs, Chords and Lyrics
Server problems seems to be fixed. Chordie has been experiencing problems with songs disappearing. These issues now seems to be fixed, but still verifying the fix. If you find anything strange, please email admin@chordie.com.


Searching  Joe Satriani

Gtr I (B E A D G B E) - 'Untitled'
Gtr II (B E A D G B E) - 'Untitled'
Gtr III (B E A D G B E) - 'Untitled'
Gtr IV (B E A D G B E) - 'Untitled'
Gtr V (B E A D G B E) - 'Untitled'
Moderately Slow Rock Q=78
[Bm] [A] [B5] [A] 
[4/4] Gtr I
PM| PM|
Wx2 E E S E S +S S S S E E E E S E S +S S S S E E
 
 |------------||------------------------------|---------------------------|
 |------------||------------------------------|---------------------------|
 |------------||o-----------------------------|---------------------------|
 |------------||----------12-(12)-------11-11-|---------9-(9)-------11-11-|
 |------------||o-------9---------9s7-0--0--0-|-------9-------9-7-0--0--0-|
 |------------||------7------------------x--x-|-----7----------------x--x-|
 |------------||--0-0-------------------10-10-|-0-0-----------------10-10-|

1. 2.
Bm A B5 A N.C.(Bm) (A)
Gtr II
PM| PM| PM|
E E S E S +S S S S E E E E S E S +S S S S Q E E E E Q S S S S
 
 |-----------------------------|--------------------------||--------------------|
 |-----------------------------|--------------------------||--------------------|
 |-----------------------------|-------------------------o||----------------7-9-|
 |---------12-(12)-------11-11-|---------9-(9)-------11---||--------------9-----|
 |-------9---------9s7-0--0--0-|-------9-------9-7-0--0--o||--------------------|
 |-----7------------------x--x-|-----7----------------x---||-----7--------------|
 |-0-0-------------------10-10-|-0-0-----------------10---||-0-0----------------|

[(Bm)] ~~~~~~~[(A)]~~~~~~~[(Bm)]~~~~~~~~~~~~~[(A)]
S E S +H. +H +E. +S E S S
 
 |-------------------|----------------------------|
 |-------------------|----------------------------|
 |-9s11-11-(11)------|-(11)----(11)-(11)\---[9]---|
 |-------------------|--------------------------9-|
 |-------------------|----------------------------|
 |-------------------|----------------------------|
 |-------------------|----------------------------|

[(Bm)]S E S +S S S S +S T T S S [(A)]S S a S a S
 
 |------------------------------------------------|
 |------------------------------------------------|
 |-9s11-11-(11)s9---7-(7)-9p7s6-7p6s4-(4)s2-(2)s4-|
 |------------------------------------------------|
 |------------------------------------------------|
 |------------------------------------------------|
 |------------------------------------------------|

[(Bm)]~~ [(A)] [(Bm)] ~~~~~~~~[(A)]
 
 |------3------| |------3------| |-3--|

H. +S S S S S E S Q +E +S +S +S +S +S +S +S T T T
 
 |---------------------|--------------------------------------------------------------------|
 |---------------------|--------------------------------------------------------------------|
 |-4-------(4)\----7-9-|-9s11-11-11--(11)-(11)b12==(11)r(11)-(11)b12==(11)r(11)-(11)-9h11p9-|
 |--------------/9-----|--------------------------------------------------------------------|
 |---------------------|--------------------------------------------------------------------|
 |---------------------|--------------------------------------------------------------------|
 |---------------------|--------------------------------------------------------------------|

[(Bm)] ~~~~~~~~[(A)]
|-3--|
E E E Q +E +E E. S
 
 |-----------------------------|
 |-----------------------------|
 |-7-9-11-11--(11)-(11)\-------|
 |--------------------------9--|
 |-----------------------------|
 |-----------------------------|
 |-----------------------------|

[(Bm)] [(A)] [(Bm)] ~~~~~[(A)]
|-3-|
S E S +S S S S +S S S T T T S S S S S E. H a E E
 
 |------------------------------------------|-------------------|
 |------------------------------------------|-------------------|
 |-9s11-11-(11)-9---7-(7)-9---7h9p7s6h7-6s4-|-2s4--4----7s16\---|
 |------------------------------------------|-------------------|
 |------------------------------------------|-----------------x-|
 |------------------------------------------|-----------------x-|
 |------------------------------------------|-------------------|

$
[(Bm)] S S S S S S S S [(G)] S S S S S S S S
 
 |-/[10]-7------10-/[7]---/[10]-7------10-/[7]---/[10]-7------7-|
 |---------/[7]---------7---------/[8]---------8---------/[8]---|
 |--------------------------------------------------------------|
 |--------------------------------------------------------------|
 |--------------------------------------------------------------|
 |--------------------------------------------------------------|
 |--------------------------------------------------------------|

[(D)] S S S S S S S S [(A/C#)] S S S S S S S S
 
 |-/[10]-5------10-/[5]---/[10]-5------9-/[5]---/[9]-5------5-|
 |---------/[7]---------7---------/[5]--------5--------/[5]---|
 |------------------------------------------------------------|
 |------------------------------------------------------------|
 |------------------------------------------------------------|
 |------------------------------------------------------------|
 |------------------------------------------------------------|

[(Bm)] S S S S S S S S [(G)] S S S S S S S S
 
 |-/[10]-7------10-/[7]---/[10]-7------10-/[7]---/[10]-7------7-|
 |---------/[7]---------7---------/[8]---------8---------/[8]---|
 |--------------------------------------------------------------|
 |--------------------------------------------------------------|
 |--------------------------------------------------------------|
 |--------------------------------------------------------------|
 |--------------------------------------------------------------|

[(D)] S S S S S S S S [(A)] S S S S S S S S
 
 |-/[10]-5------10-/[5]---/[10]-5-------12-/[9]----/[12]-9-------9-|
 |---------/[7]---------7---------/[10]---------10---------/[10]---|
 |-----------------------------------------------------------------|
 |-----------------------------------------------------------------|
 |-----------------------------------------------------------------|
 |-----------------------------------------------------------------|
 |-----------------------------------------------------------------|

[(Bm)] S S S S S S S S [(G)] S S S S S S S S
 
 |-/[14]-10-------14-/[10]----/[14]-10-------15-/[10]----/[15]-10-------10-|
 |----------/[12]----------12----------/[12]----------12----------/[12]----|
 |-------------------------------------------------------------------------|
 |-------------------------------------------------------------------------|
 |-------------------------------------------------------------------------|
 |-------------------------------------------------------------------------|
 |-------------------------------------------------------------------------|

[(D)] S S S S S S S S [(A/C#)] S S S S S S S S
 
 |-/[14]-10-------14-/[10]----/[14]-10-------12-/[9]----/[12]-9-------9-|
 |----------/[10]----------10----------/[10]---------10---------/[10]---|
 |----------------------------------------------------------------------|
 |----------------------------------------------------------------------|
 |----------------------------------------------------------------------|
 |----------------------------------------------------------------------|
 |----------------------------------------------------------------------|

[(Bm)] S S S S S S S S [(G)] S S S S S S S S
 
 |-/[10]-7------10-/[7]---/[10]-7------10-/[7]---/[10]-7------7-|
 |---------/[7]---------7---------/[8]---------8---------/[8]---|
 |--------------------------------------------------------------|
 |--------------------------------------------------------------|
 |--------------------------------------------------------------|
 |--------------------------------------------------------------|
 |--------------------------------------------------------------|

To Coda
[(D)] S S S S S S S S [(A)] S S S S S S S S
 
 |-/[10]-5------10-/[5]---/[10]-5------9-/[5]---/[9]-5-/[9]-5-|
 |---------/[7]---------7---------/[5]--------5---------------|
 |------------------------------------------------------------|
 |------------------------------------------------------------|
 |------------------------------------------------------------|
 |------------------------------------------------------------|
 |------------------------------------------------------------|

[(Bm)] \1/ \1/ \1/ \1/ \1/ \1/ \1/ [(A)] \1/ \1/ \1/
E +S +S +S +S +E +S +E +S +E +S +S
 
 |-7-(7)--(7)--(7)-(7)--(7)--(7)--(7)--(7)--(7)--(7)--(7)--|
 |-7-(7)--(7)--(7)-(7)--(7)--(7)--(7)--(7)--(7)------------|
 |---------------------------------------------------------|
 |---------------------------------------------------------|
 |---------------------------------------------------------|
 |---------------------------------------------------------|
 |---------------------------------------------------------|

[(Bm)] \1/ \1/ \1/ \1/ \1/ \1/ \1/ \1/ \1/ [(A)] \1/
 
 |----3----| |----3----| |----3----|

[+E] [+E] [+E] [+E] [+E] [+E] [+E] [+E] [+E] [+E] [E]  
 
 |-(7)--(7)--(7)--(7)--(7)--(7)--(7)--(7)--(7)--(7)-----|
 |------------------------------------------------------|
 |---------------------------------------------------2/-|
 |------------------------------------------------------|
 |------------------------------------------------------|
 |------------------------------------------------------|
 |------------------------------------------------------|

[(Bm)] \1/ \1/ [(A)] \1/
~~~
E. S S S +T T T T S. T S S S T S T S
 
 |-17-----14s15-(15)--------------------------------------------|
 |-------------------------17s==19-----15h==17----14h==15p14----|
 |-----12------------11s12--------------------------------------|
 |----------------------------------14---------14------------11-|
 |--------------------------------------------------------------|
 |--------------------------------------------------------------|
 |--------------------------------------------------------------|

[(Bm)] \1/[(A)]
~~
S S E S S T T S S E. +S S E
 
 |------------10p9h10p9s7----7--(7)s19---||
 |-12s==10-12-------------10-------------||
 |-------------------------------------0-||
 |-------------------------------------0-||
 |-------------------------------------0-||
 |---------------------------------------||
 |---------------------------------------||

[Bm]E E S S S S +S S S S [A] Q
 
 |-------------------------------|
 |-------------------------------|
 |-------------------------------|
 |------------12-(12)-12-----11--|
 |----------9------------7-0--0--|
 |--------7-------------------x--|
 |-0-0-/9--------------------10--|

[B5]PM| [A] [Bm]PM|[A]
E E E a S S +S S S S Q E E S S S S +S S S S E E
 
 |----------------------------|-------------------------------|
 |----------------------------|-------------------------------|
 |----------------------------|-------------------------------|
 |------------9-(9)-------11--|------------12-(12)-9s7---11---|
 |--------7s9-------9-7-0--0--|----------9-------------0----0-|
 |-------------------------x--|--------7----------------------|
 |-0-0-/7-----------------10--|-0-0-/7------------------------|

[B5]PM| [A] [Bm]PM|[A]
E E S E S +S S S S Q E E S S S S +S S S S E E
 
 |--------------------------|--------------------------------|
 |--------------------------|--------------------------------|
 |--------------------------|--------------------------------|
 |----------9-(9)-------11--|------------12-(12)-9s7---11-11-|
 |----------------9-7-0--0--|----------9-------------0--0--0-|
 |--------7--------------x--|--------7------------------x--x-|
 |-0-0-/7---------------10--|-0-0-/9-------------------10-10-|

[B5]PM|[A]
E E S S S S +S S S S Q
 
 |----------------------------|
 |----------------------------|
 |----------------------------|
 |-----------9-(9)-------11---|
 |---------9-------9-7-0--0---|
 |-----5s7----------------x---|
 |-0-0-------------------10---|

[Bm]PM|[A]
E E S S S S +S S S S Q
 
 |------------------------------|
 |------------------------------|
 |------------------------------|
 |------------12-(12)-9s7---11--|
 |----------9-------------0--0--|
 |--------7------------------x--|
 |-0-0-/7-------------------10--|

B5 N.C.(A(Bm) (A)
Gtr III
PM| TP
E E S S S S +S S S S a Q E E E. S H
 
 |------------------------------|-----------------|
 |------------------------------|-----------------|
 |------------------------------|-----------------|
 |-----------9-(9)--------------|-----------------|
 |---------9-------9-7-0--------|-----------------|
 |-----5s7----------------------|-----------------|
 |-0-0-------------------10s17s=|=0-0----x/-------|

[(Bm)] [(A)] [(Bm)] [(A)] [(Bm)] [(A)] [(Bm)]GtGtrGtr IGtr[(A)] IIGtr II
TP TPTP TP TP TP TP TP TP TP TP
H Q E E E. S Q S E. E E H E E E E S S Q E Q E. S
 
 |--------------|---------------------|----------------|---------0-------<5>-|
 |--------------|---------------------|----------------|---------0-----------|
 |--------------|---------------------|----------------|---------------------|
 |--------------|---------------------|----------------|---------------------|
 |--------------|---------------------|-------------x/-|-2-x/-2--------------|
 |--------------|----xsx\----------x\-|--------x\---x/-|-2-x/-2--------------|
 |-----------x/-|----xsx\----x\-x/----|----------------|-----------xs=x/-----|

[(Bm)] \6_____/0___\6___/2.5___\6___/1___\6___\7______[(A)]___
 
 |------------6-------------|

+Q. +E +T +T +T +T +T +T +Q.
 
 |-(5)----(5)--(5)--(5)----(5)--(5)--(5)--(5)--(5)---|
 |---------------------------------------------------|
 |---------------------------------------------------|
 |---------------------------------------------------|
 |---------------------------------------------------|
 |---------------------------------------------------|
 |---------------------------------------------------|

[(Bm)] /0____\7___/0__[(A)]_\7___/0____[(Bm)]_________\7____|[(A)]
+Q +Q E +E +E +E +E. S +Q +E E Q
 
 |-(5)--(5)---(5)--(5)--(5)--(5)--|-(5)-(5)-(5)---(5)------||
 |------------(0)--(0)--(0)--(0)--|-(0)-[0]-(0)---(0)------||
 |------------(0)--(0)--(0)--(0)--|-(0)-(0)-(0)---(0)------||
 |------------(0)--(0)--(0)--(0)--|-(0)-(0)-(0)---(0)------||
 |--------------------------------|------------------------||
 |--------------------------------|------------------------||
 |--------------------------------|------------------------||

[(Bm)] ~~~~~~~[(A)]~~~~~~~[(Bm)]~~~~~~~~~[(A)]
 
 |---9----| |---9---|

S E. +H. +Q +E S S S S. a E a S a S +E E E S S S
 
 |---------------|----------------------------------------------------|
 |---------------|----------------------------------------------------|
 |-4s6--(6)------|-(6)--(6)-6h7p6s4--(4)s6-(6)s9-(9)s7-(7)s6-7-6h7p6s=|
 |---------------|----------------------------------------------------|
 |---------------|----------------------------------------------------|
 |---------------|----------------------------------------------------|
 |---------------|----------------------------------------------------|

[(Bm)]S a S a Q a E +S T T T T T T [(A)]S a E a S
 
 |----------------------------------------------------|
 |----------------------------------------------------|
 |-4-(4)s2-(2)s4--(4)s6-(6)-7p6-7p6---6---------------|
 |----------------------------------9---7-(7)s9-(9)s4-|
 |----------------------------------------------------|
 |----------------------------------------------------|
 |----------------------------------------------------|

[(Bm)] /1.5\ /1.5\ /1.5\ /1.5\[(A)]
a Q +S +E +S +S +E +S +E E
 
 |---------------------------------------------------|
 |---------------------------------------------------|
 |---------------------------------------------------|
 |-(4)s2--(2)-(2)----(2)----(2)-(2)----(2)----(2)s3--|
 |---------------------------------------------------|
 |---------------------------------------------------|
 |---------------------------------------------------|

[(Bm)] [(A)]~~~~
T T T T T T S +S T T T S. +E +T T T T Q
 
 |---------------------------------------------|
 |---------------------------------------------|
 |---------------------------------------------|
 |-2h3p2p0-2p0-------------4--(4)-(4)s6h7h9-6--|
 |-------------2-(2)s4h5h7---------------------|
 |---------------------------------------------|
 |---------------------------------------------|

~[(Bm)]~~~~~[(A)]
 
 |-3--| |-3-| |-3--| |---5----|

+Q S S S S S T T T T T T S +S S S S S S S S
 
 |-------------------------------------------------|
 |---------------------7-10p7-9-(9)p7---7---7------|
 |---------6-7---6-7-9----------------9---9---9s11-|
 |-(6)h7h9-----9-----------------------------------|
 |-------------------------------------------------|
 |-------------------------------------------------|
 |-------------------------------------------------|

[(Bm)] ~~~~~~~~ [(A)] ~~~~[(Bm)]~~~~~ ~~~~~~~~~~~[(B)]~~~~~~~~~~~
 
 |-3--| |-3-| |-3--|

Q +S T T T S a S S S S S S +S S Q +E. S +E E +S E. E S +S
 
 |-------------------------------------------|----------------------------------|
 |-------------------------------------------|----------------------------------|
 |-11--(11)-9h11p9s7-(7)s6-7---6---------7s9-|-(9)s4-(4)-[4]-(4)-[4]-4-[4]-(4)/-|
 |---------------------------9---7-9-(9)-----|----------------------------------|
 |-------------------------------------------|----------------------------------|
 |-------------------------------------------|----------------------------------|
 |-------------------------------------------|----------------------------------|

[(Bm)] |-3-|[(A)]
S T T S S S T T T T T T T T T T T T Q T T T T
 
 |---------------------------------------------------|
 |-0-10p9p0-9p0-9p0-9p0-9p0-9p0-9p0-9p0-10--9h10p9p0-|
 |---------------------------------------------------|
 |---------------------------------------------------|
 |---------------------------------------------------|
 |---------------------------------------------------|
 |---------------------------------------------------|

[(Bm)]T T T T T T T T T T T T E +S T T T T T T [(A)]T T T T T S.
 
 |--------------------------------------------------------------|
 |-9p0-9p0-9p0-9p0-9p0-9p0-10-(10)-9h10p9p0-7h9p7p0-5h7p5s3h====|
 |--------------------------------------------------------------|
 |--------------------------------------------------------------|
 |--------------------------------------------------------------|
 |--------------------------------------------------------------|
 |--------------------------------------------------------------|

[(Bm)] [(A)]  
 
 |-3-| |-3--| |-3-|

a a E +T T T T T T T a a T T S +T T T S T T T T T T T X X T T T T T T T
 
 |-----------------4h5h7-5h7p4s5-9-(9)p7p5h7-5h7p5---5------------------------|
 |-5p3s2-(2)s3h5h7---------------------------------9---9-7-5h7h9p7p5-9p5-7p5--|
 |----------------------------------------------------------------------------|
 |----------------------------------------------------------------------------|
 |----------------------------------------------------------------------------|
 |----------------------------------------------------------------------------|
 |----------------------------------------------------------------------------|

[(Bm)] [(A)]  
 
 |-3-| |----6----| |----6-----|

T T T T T T T T T T T T T T T T T T T T T T T T T T T T T S T T T T T T
 
 |--------------------------------------------------------------------------19-------|
 |---5-------------------------------------------------------------------19----19----|
 |-9---9p7p6-9p7p6---6h7p6---6-----------6s7h9h11p9p7-----------------19----------19-|
 |-----------------9-------9---9p7p6h7h9--------------11p7h9h11-7/-19----------------|
 |-----------------------------------------------------------------------------------|
 |-----------------------------------------------------------------------------------|
 |-----------------------------------------------------------------------------------|

[(Bm)] ~~~~~~~~[(A)]~~~~~[(Bm)] [(A)]
 
 |--3--| |--3--|

E a a E +E. S +Q +E. S +S S S S S S S S E +E S S +Q
 
 |------12-17b19==(17)r-17-(17)--(17)-16-|-(16)-14----------------------------------------|
 |---14----------------------------------|------------------------------------------------|
 |---------------------------------------|---------16-14s13----------------------14-(14)--|
 |---------------------------------------|------------------14---------------/17----------|
 |---------------------------------------|---------------------16-14-12-(12)--------------|
 |---------------------------------------|------------------------------------------------|
 |---------------------------------------|------------------------------------------------|

[(Bm)] [(A)] [(Bm)] Gtr[(A)]Gtr II
~~~~~~~~~TP
+W +Q +Q +S E. S S E
 
 |-------------|-------------------------------|
 |-------------|-----------------------<5>-----|
 |-(14)--------|-(14)--(14)--(14)----------0---|
 |-------------|-------------------------------|
 |-------------|------------------x\-0---------|
 |-------------|-------------------------------|
 |-------------|-------------------------------|

[(Bm)] [(A)]  
 
 |------6-------| |------6-------|

S T T T T T T T T T T T T T T S S T T S S S S S S S
 
 |-----17----17----17----17----17----17----17----17-------------12-12-12---------|
 |-/19----19----19----19----19----19----19----19----19-17---/15-------------0-12-|
 |--------------------------------------------------------0--------------14------|
 |-------------------------------------------------------------------------------|
 |-------------------------------------------------------------------------------|
 |-------------------------------------------------------------------------------|
 |-------------------------------------------------------------------------------|

[(Bm)] S a S T T T T S S S S S S S a S [(A)] E. S
 
 |-----------------------------------------------------------|
 |-----------------------------------------------------------|
 |-14-------14----14----14-----------------------------------|
 |----14s16----16----16--------16----14----12-------14--14s==|
 |-------------------------/17----16----14----14s16----------|
 |-----------------------------------------------------------|
 |-----------------------------------------------------------|

[(Bm)]~ ~~~~~~ [(A)] ~~ [(Bm)] ~~~~~~ ~~[(A)]
 
 |----6----|

Q S E S +Q S E. a S S S S S S +E. S +S E. S S T T T T
 
 |--------------------|------------------------------------------|
 |--------------------|------------------------------------------|
 |---------------7s9--|-(9)s7----------------------------6h7---6-|
 |-9--7-9-9-(9)-------|-------9-7-9-7-9-(9)-9-(9)-7----9-----9---|
 |--------------------|------------------------------0-----------|
 |--------------------|------------------------------------------|
 |--------------------|------------------------------------------|

[(Bm)] [(A)]  
 
 |------6-------| |-----6-----|

S S S S S S S S S S S S Q. T T T T
 
 |----------------7-9-10-7-9----7-9p==7----7-9-|
 |-----[7]-8-[10]------------10---------10-----|
 |-7-9-----------------------------------------|
 |---------------------------------------------|
 |---------------------------------------------|
 |---------------------------------------------|
 |---------------------------------------------|

[(Bm)] [(A)]  
 
 |-3-| |----3----| |------6-------|

S S S S S S +E +S S S S S S S S S S S S
 
 |-10-7-9----7----------------------7---------7---------7---------7-----------|
 |--------10---10b12r(10)b11==(10)r---10b10.5---7-10b11---7-10b11---7-10b11---|
 |----------------------------------------------------------------------------|
 |----------------------------------------------------------------------------|
 |----------------------------------------------------------------------------|
 |----------------------------------------------------------------------------|
 |----------------------------------------------------------------------------|

[(Bm)] |-3--| |-3-|[(A)]
S S S S S S S S T T T T T T S T T T T T +T T T T T S
 
 |-7---10p7----7-9-7h9p7----7-------------7-------------------------|
 |---7------10-----------10---10p7------7---10p7--------------------|
 |---------------------------------9b10----------9b10r(9)p7---9---7-|
 |----------------------------------------------------------9---9---|
 |------------------------------------------------------------------|
 |------------------------------------------------------------------|
 |------------------------------------------------------------------|

[(Bm)] ~~~~~[(A)]
T T T T T T T T T S. E E S S +S S S S
 
 |-------------------------------0-(0)-0-0---|
 |-------------------------------0-(0)-0-0---|
 |-6-7-6h7p6s4-6p4s2-4--[4]-4-4/-------------|
 |-----------------------------------------0-|
 |-----------------------------------------0-|
 |-------------------------------------------|
 |-------------------------------------------|

[(Bm)] ~~~~~~~~~~~~~[(A)]
 
 |--3--| |--3--|

S S S S +Q +S T T T T T T T T S E S
 
 |--------------------------------------------------------|
 |--------------------------------------------------------|
 |---4S14-14-(14)--(14)-12h14p12s11h12-11h12p11s9s11-12s==|
 |--------------------------------------------------------|
 |--------------------------------------------------------|
 |--------------------------------------------------------|
 |-0------------------------------------------------------|

[(Bm)] ~~~[(A)]
 
 |--3--| |-3-|

S E. T T T S X X T T T X X S X X S X X T +T S T S S S
 
 |----------------------------------------------------------------------|
 |----------------------------------------------------------------------|
 |-14-16--14h16p14s12-14p12p11h12-11h12p11s9h11p9s7h9p7s6-(6)h7-6-6---6-|
 |------------------------------------------------------------------9---|
 |----------------------------------------------------------------------|
 |----------------------------------------------------------------------|
 |----------------------------------------------------------------------|

[(Bm)] [(A)]  
 
 |---3----| |-3-|

T T T T E +E a a E E a E a S a S a S T T T T T T T
 
 |-------------------------------------------------------------|
 |-------------------------------------------------------------|
 |-------------------------------------------------------------|
 |-9s7-4h7p5-(5)-4h5p4s2-(2)s4-(4)s7-(7)s5-(5)s4-5p4-4h5p4---4-|
 |---------------------------------------------------------7---|
 |-------------------------------------------------------------|
 |-------------------------------------------------------------|

[(Bm)] ~~~~~~~~PM PM|[(A)]
S E S +E E S S S S E S S
 
 |-------------------------------|
 |-------------------------------|
 |---------------7-----7---------|
 |---------------7-----7-<7>-<7>-|
 |-5s7-9-(9)-9-9---7-9-----------|
 |-------------------------------|
 |-------------------------------|

[(Bm)] [(A)] [(Bm)] Gt[(A)]r III [(Bm)] [(A)] Gtr II
TPTPTP TP TPTP
S S Q. S E. S E. +H +E. S E E Q. E Q. E
 
 |---------------------------<7>-|-(<7>)----(<7>)--------|------------<5>-|
 |---------<7>---<7>-<7>-<7>-----|-----------------------|----------------|
 |-<7>-----<7>---<7>-------------|-----------------------|----------------|
 |-----<7>-----------------------|-----------------------|----------------|
 |-------------------------------|----------------xsxSx/-|----------------|
 |-------------------------------|----------------xsxSx/-|-xS==xSx\-------|
 |-------------------------------|-----------------------|-xS==xSx\-------|

[(Bm)] Gtr III [(A)] Gtr II[(Bm)] [(A)]
\7____|
TP TPTP TP ~~~~~~
+E. +S E. S Q E. S S S +Q S S E E +S S S S
 
 |-(<5>)-(<5>)------------------|-7---------------7---------7-(7)-7---------|
 |------------------------10b12-|---10b12==(10)r----7-10b12---------7-10b12-|
 |------------------------------|-------------------------------------------|
 |------------------------------|-------------------------------------------|
 |------------------------------|-------------------------------------------|
 |-------------x\-xsxS=x\-------|-------------------------------------------|
 |----------------xsxS=x\-------|-------------------------------------------|

[(Bm)] [(A)]  
 
 |------6-------| |-----6------|

S S S S S S S S S S S S T T T T T T T T T T T T T T
 
 |-7-------7-------7---------7---------7h10-7h10p7h10p7----7h10p7----7h10p7----|
 |---10b12---10b12---7-10b12---7-10b12------------------10--------10--------10-|
 |-----------------------------------------------------------------------------|
 |-----------------------------------------------------------------------------|
 |-----------------------------------------------------------------------------|
 |-----------------------------------------------------------------------------|
 |-----------------------------------------------------------------------------|

[(Bm)] [(A)]  
 
 |-3--| |-3-| |-3--| |-3-| |-3-| |-3-|

T T T T T T T T T T T T T T T T T T T T T T T T T T T T T T T T T T T T T T
 
 |-7h10p7----7h10p7----7h10p7---10p7-9h10p9p7------------------------------------------|
 |--------10--------10--------9---------------10-7h8h9-8p7-9-7-8p7---------------------|
 |-----------------------------------------------------------------9p6-9p7p6h7p6h7p6s4-|
 |-------------------------------------------------------------------------------------|
 |-------------------------------------------------------------------------------------|
 |-------------------------------------------------------------------------------------|
 |-------------------------------------------------------------------------------------|

[(Bm)] ~~~~~~~ [(A)] T T T
 
 |-3-| |------6-------|

T T T T T S T T T T T T T S. +E. S S T T T T T T T T
 
 |------------------------------------------------------------------|
 |----------------------------------------12s11---------------------|
 |-6p4h6p4s2s4-6h7-4---4---4----------/13-------h14-16p14-16p14-16p=|
 |-------------------7---7---4--(4)-4-------------------------------|
 |------------------------------------------------------------------|
 |------------------------------------------------------------------|
 |------------------------------------------------------------------|

[(Bm)] [(A)]GtrGtr II
T T T T T T T T T T T T T T T T T T TP
 
 |-------------12:8---------------| |-------------12:8---------------| |-------------12:8---------------|

T T T T T T T T T T T T T T T T T T T T T T T T T T T T T T T T T T T T E E
 
 |------------------------------------------------------------------------------------------------------------------|
 |------------------------------------------------------------------------------------------------------------------|
 |-14-16p14-16p14-16p14-16p14-16p14-16p14-16p14-16p14-18p13-19p13-19p13-19p13-19p13-19p13-19p13-19p13-19p13-19------|
 |-------------------------------------------------------------------------------------------------------------x\---|
 |-------------------------------------------------------------------------------------------------------------x\-0-|
 |------------------------------------------------------------------------------------------------------------------|
 |------------------------------------------------------------------------------------------------------------------|

[(Bm)] \1____/ [(A)] \1____/ \1____/
E Q. +S T +T +E +T +T +E a +T +T
 
 |----12----(12)-[12]--(12)-(12)-(12)--(12)-(12)-(12)--(12)-(12)-|
 |---------------------------------------------------------------|
 |-14------------------------------------------------------------|
 |---------------------------------------------------------------|
 |---------------------------------------------------------------|
 |---------------------------------------------------------------|
 |---------------------------------------------------------------|

[(Bm)] ~~~~ ~~~~[(A)]
 
 |---3----| |------6-------|

Q S S +E +E S S S S S S S S S
 
 |-----------------------------------------------12-14-17-12h=|
 |-[15]--12-[15]b17==(15)r(15)-12-------12-14-15--------------|
 |--------------------------------14b16-----------------------|
 |------------------------------------------------------------|
 |------------------------------------------------------------|
 |------------------------------------------------------------|
 |------------------------------------------------------------|

[(Bm)] ~~~~~~~~~~ ~~[(A)]~~ ~~~ ~~
|--3--|
S S S T T T T S T T +E E S S T S T S S
 
 |-14----12------------------------------------------------7-|
 |----15----12-15p12----12----12-(12)-12-----/10p0-10p0-10-7-|
 |-------------------14----14------------14\-----------------|
 |-----------------------------------------------------------|
 |-----------------------------------------------------------|
 |-----------------------------------------------------------|
 |-----------------------------------------------------------|

[(Bm)] T T T T T T T T T T T T T T T T T T T T T T S [(A)] T T T T T T S
 
 |-12p7-12-12p7-12p7-7-12-12p7-12p7-7-12p7-12p7-12p7-7-12p7-12p7-12p7-7-12p7-|
 |-12p7-12-12p7-12p7-7-12-12p7-12p7-7-12p7-12p7-12p7-7-12p7-12p7-12p7-7-12p7-|
 |---------------------------------------------------------------------------|
 |---------------------------------------------------------------------------|
 |---------------------------------------------------------------------------|
 |---------------------------------------------------------------------------|
 |---------------------------------------------------------------------------|

[(Bm)] T T T T T T S T T T T T T S T T T T T T S [(A)] T T T T T T S
 
 |-12p7-12p7-7-12p7-12p7-12p7-7-12p7-12p7-12p7-7-12p7-12p7-12p7-7-12p7-|
 |-12p7-12p7-7-12p7-12p7-12p7-7-12p7-12p7-12p7-7-12p7-12p7-12p7-7-12p7-|
 |---------------------------------------------------------------------|
 |---------------------------------------------------------------------|
 |---------------------------------------------------------------------|
 |---------------------------------------------------------------------|
 |---------------------------------------------------------------------|

[(Bm)] T T T T T T S T T T T T T S T T T T T T S [(A)] T T T T T T T T
 
 |-12p7-12p7-7-12p7-10p7-10p7-10-10p7-10p7-10p7-10-10p7-10p7-10p7-10-10p7-7--|
 |-12p7-12p7-7-12p7-10p7-10p7-10-10p7-10p7-10p7-10-10p7-10p7-10p7-10-10p7-7--|
 |---------------------------------------------------------------------------|
 |---------------------------------------------------------------------------|
 |---------------------------------------------------------------------------|
 |---------------------------------------------------------------------------|
 |---------------------------------------------------------------------------|

[(Bm)] T T T T T T T T T T T T T T T T T T T T S S [(A)]S E S
 
 |-12p7-12p7-10-10p7-7-12p7-12p7-10-10p7-7-12p7-10-10-7\----0-------|
 |-12p7-12p7-10-10p7-7-12p7-12p7-10-10p7-7-12p7-10-10-7\----0-------|
 |-------------------------------------------------------2/---14-14-|
 |------------------------------------------------------------------|
 |------------------------------------------------------------------|
 |------------------------------------------------------------------|
 |------------------------------------------------------------------|

[(Bm)] T T T T T T T T S E S S S S S [(A)] S T T T T T T
 
 |---------------------------------------------------------------|
 |---------------------------------------------------------------|
 |-14-14-14-14-14-14-14-14-14\-----------------14-14-14-14-14-14-|
 |---------------------------------9-----------------------------|
 |-----------------------------0-9-------------------------------|
 |-----------------------------------7---7s10/-------------------|
 |-------------------------------------0-------------------------|

[(Bm)] ~~~~~~[(A)]
T T T T E S S S S +E. +S E T T T T
 
 |---------------------------------------------------|
 |---------------------------------------------------|
 |-14-14-14-14-14\-----0-9-(9)-(9)\-2/-14-14-14-14---|
 |-----------------0-2-0------------2/---------------|
 |-----------------0-2-------------------------------|
 |---------------------------------------------------|
 |---------------------------------------------------|

[(Bm)] T T T T E a E. S +S S E [(A)]S T T T T T T
 
 |-----------------------------------------------------|
 |-----------------------------------------------------|
 |-14-14-14-14-14\-------------------14-14-14-14-14-14-|
 |-----------------------------------------------------|
 |---------------------------------x-------------------|
 |-------------------------------x---------------------|
 |-----------------7s17\-0-(0)-0-----------------------|

[(Bm)] \3.5___/2____/0______[(A)]_________
S a S E +Q +E. +S S S S S
 
 |-------------------------------------5-|
 |-------------------------------------5-|
 |-14----------------------------0-------|
 |---------------------------------------|
 |-----------------------------------0---|
 |----10s12------------------------0-----|
 |----------0-----(0)---(0)--(0)---------|

[(Bm)]+Q E S S +E S S [(A)]S S S S [(Bm)]S S S S S S S S S S S S [(A)]S S T S T
 
 |-(5)------------------------|-------------------------------------|
 |-(5)----------------------0-|---0---0---0---0---0---0-----------7-|
 |------4-4-2-(2)-4-2-4-4-x---|-0---2-------0---0-------7-10-7h10---|
 |----------------------------|---------0-----------0---------------|
 |----------------------------|-------------------------------------|
 |----------------------------|-------------------------------------|
 |----------------------------|-------------------------------------|

[(Bm)] [(A)]  
 
 |-----6------| |-3--|

S T S T S +S S S S S S T +T T T T T T T T T T T T T T T T
 
 |---------------------------------------------------------------------------------|
 |-10-7-10-7---------7----7-10-7--------------7-10-7h10p7----7h10p7----7h10-7h10p7-|
 |-----------10-(10)---10--------10b11==(10)r-------------10--------10-------------|
 |---------------------------------------------------------------------------------|
 |---------------------------------------------------------------------------------|
 |---------------------------------------------------------------------------------|
 |---------------------------------------------------------------------------------|

[(Bm)] [(A)]  
 
 |-----6------|

T T T T T T T T T T T T T T T T T T T T T T T T T T T T T T T T T T
 
 |-------------------------------------------------------------------------------------------|
 |----10p7----12p7----10p7----12p7----10p7----12p7----10p7-7h12-12p7----10p7----12p7----10p7-|
 |-10------10------10------10------10------10------10----------------10------10------10------|
 |-------------------------------------------------------------------------------------------|
 |-------------------------------------------------------------------------------------------|
 |-------------------------------------------------------------------------------------------|
 |-------------------------------------------------------------------------------------------|

[(Bm)] T T T T T T T T T T T T T T T T T T T T T T T T [(A)] T T S T T T T
 
 |-10p7-10p7---9p7---12p7-12p7---10p7---12p7-14p7-14p7-13p7-12p7-7-7-7h12p7-|
 |-----------7-----7-----------7------7-------------------------------------|
 |--------------------------------------------------------------------------|
 |--------------------------------------------------------------------------|
 |--------------------------------------------------------------------------|
 |--------------------------------------------------------------------------|
 |--------------------------------------------------------------------------|

[(Bm)] PM----|[(A)]
S T T T T T T T T T T T T T T T T T T T T T T T T T T a T T T T
 
 |----7-7---12p7-7-11p7-10p7---9p7---9h10p9p7-------------------------------|
 |-10-----7------------------7-----7----------10-7-9-10p9p7-----------------|
 |----------------------------------------------------------9-7-9h11p9-7-9--|
 |--------------------------------------------------------------------------|
 |--------------------------------------------------------------------------|
 |--------------------------------------------------------------------------|
 |--------------------------------------------------------------------------|

[(Bm)] T T T T T T T T S T T T T T T T T T T T T T T [(A)]T T T T S S
 
 |-------------------------------------------------------------|
 |-------------------------------------------------------------|
 |-10p9p7---9p7---7s6-7-6h7p6---6------------------------------|
 |--------9-----9-------------9---9p7p6-9-7p6---6h7p6----------|
 |--------------------------------------------9-------9-7-5s7--|
 |-------------------------------------------------------------|
 |-------------------------------------------------------------|

[(Bm)]~~~~~~~~~~~~ ~~[(A)]~~~~ [(Bm)] PM| PM PM| [(A)]~~
Q E. S +S S S S +E S S S S S S S S S S S S S S E. S
 
 |---------------------------|-------------------------------|
 |---------------------------|-------------------------------|
 |---------------------------|-------------------------------|
 |---------------------------|-------------------------------|
 |-7--7--7-(7)-9-7-9-(9)-7-9-|-------------------------------|
 |---------------------------|-5s7-----5s7---7-----5-5-5-----|
 |---------------------------|-----0-0-----0---0-0--------7\-|

[(Bm)]PM| PM| PM| ~~[(A)]~~ [(Bm)]PM| PM| PM| ~~[(A)]~~
S S S S S S S S S S E E E S S S S S S S S S S E E E
 
 |----------------------------|----------------------------|
 |----------------------------|----------------------------|
 |----------------------------|----------------------------|
 |----------------------------|----------------------------|
 |----------------------------|----------------------------|
 |-----5s7-----5-7-----5-5----|-----5s7-----5-7-----5-5----|
 |-0-0-----0-0-----0-0-----7\-|-0-0-----0-0-----0-0-----7\-|

[(Bm)]PM| PM|[(A)]
S S S S S S E a a a a Q a Q
 
 |-------------------------------------|
 |-------------------------------------|
 |---------------x---------------------|
 |-----------------x-------------------|
 |-------------------x-----------------|
 |-----5-7-----5-------x---------------|
 |-0-0-----0-0-----------15\--3s17\----|

[(B(A)]W [(B(A)]W [(Bm)]S S E E E Q [(A)]E S S [(Bm)]S S E E E H[(A)]
 
 |----------|----------|--------------------|----------------||
 |----------|----------|--------------------|----------------||
 |----------|----------|--------------------|----------------||
 |----------|----------|--------------------|----------------||
 |----------|----------|--------------------|----------------||
 |----------|----------|--------------------|----------------||
 |----------|----------|-x-x-0-x--------x-x-|-0---0-x--------||

N.C.(Bm)
Gtr IV
~~~~~~
S S S S S S S S S S S S S S S S S S S S S S S S S S S S +E T T S
 
 |-7---7-----------------------------|-7---7-------------------------------|
 |-------10---10---------------------|-------10---10-7---------------------|
 |---------------9---9-7---7---------|-----------------9-7---7-9-(9)-7-----|
 |---------------------------9---9-x-|---------------------x-----------9-7-|
 |-----------------------------------|-------------------------------------|
 |-----------------------------------|-------------------------------------|
 |-----------------------------------|-------------------------------------|

~~~~~~
Q S S S S +E T T T T T T T T T T T T
 
 |-----------------------------------------|
 |----------------7-9-7--------------------|
 |--------7-9-(9)-------9-11p9p7s6-9-7p6---|
 |------9--------------------------------9-|
 |-----------------------------------------|
 |-----------------------------------------|
 |-----------------------------------------|

T T T T T T T T T T T T T T T T T T T T E Q
 
 |----------------------------------------------|
 |----------------------------------------------|
 |-6h7p6---6------------------------------------|
 |-------9---9p7p6-9-7p6---6-6---6--------------|
 |-----------------------9-----9---9p7p5s4------|
 |----------------------------------------------|
 |----------------------------------------------|

~~~~~~~~~
S E S +S E S E S S +S E S +S E S S S S S +Q +S E S
 
 |----------------------------------|---------------------------------|
 |---/12-----------10---------------|-------------------------------7-|
 |-------11-(11)s9--------9-(9)-----|---------------------------------|
 |--------------------9s7-----------|---------------------------------|
 |------------------------------7s9-|-(9)-7s9h12s11s9s7-(7)--(7)/-----|
 |----------------------------------|---------------------------------|
 |----------------------------------|---------------------------------|

~~~~~~ ~ ~
|-3-|
S S S S +E S S S S S S Q +S S S S S S S S S E S S T T T S S
 
 |----7---7-(7)------------------|-------------------------------5-7---|
 |-10-----------10-7-10-7--------|-------5---5---5---5-5-----5-7-------|
 |------------------------9---9--|-(9)s7---7---7---7-------------------|
 |-------------------------------|-------------------------------------|
 |-------------------------------|-------------------------------------|
 |-------------------------------|-------------------------------------|
 |-------------------------------|-------------------------------------|
 |------6-------| |------6-------|

E T T T T S S E S S S S S S S S S S S S
 
 |------------10-12-14---19-17-------------------------------|
 |------10-12------------------19-17-------19-17-------------|
 |---11------------------------------19-16-------19-16-------|
 |-----------------------------------------------------19-16-|
 |-----------------------------------------------------------|
 |-----------------------------------------------------------|
 |-----------------------------------------------------------|
 |------6-------| |-----6-----| |--3--|

S S S S S S E e E S S S S S S S E
 
 |---------------------------------------------19-22-|
 |---------------------------------------------------|
 |-19-16---------------------------------19-21-------|
 |-------19-16---------------------19-21-------------|
 |-------------19-17-19-17---19-21-------------------|
 |---------------------------------------------------|
 |---------------------------------------------------|

~~~~~~~
 
 |------6-------|

S E. E. S Q S S S S S S
 
 |-22-19--19--22b22.5----19----------------|
 |--------------------------22-19----------|
 |--------------------------------21-19-21-|
 |-----------------------------------------|<br /

Important: The song above is NOT stored on the Chordie server. The original song is hosted at www.xguitar.com. Chordie works as a search engine and provides on-the-fly formatting. Chordie does not index songs against artists'/composers' will. To remove this song please click here.

Text color:
Chord color:
Chord grids: 
Font size:    
Page size: 

A B5 Bm E
Rate #2 of 5 versions

Jango Player

Login - add to songbook

SHARE PAGE  



You need to log in to post comments