Guitar Tabs, Chords and Lyrics
Server problems seems to be fixed. Chordie has been experiencing problems with songs disappearing. These issues now seems to be fixed, but still verifying the fix. If you find anything strange, please email admin@chordie.com.


Killer Bee Bop  Joe Satriani

As recorded by Joe Satriani
From the 1995 Album JOE SATRIANI
Music by Joe Satriani
Arranged by Joe Satriani
Transcribed by Didn't Say
0 2 [E5]x x x x 2 4 [F#5]4 x x x 5 7 [A5]7 x x x 5 5[G5/A] 5 x x x
8 10 [C5]10 x x x 8 8[Bb5/C] 8 x x x 6 6 [Eb5]x x x x 7 9 [B5]9 x x x
7 7[A5/B] 7 x x x 1 3 [F5]3 x x x
Gtr I (E A D G B E) - 'Gtr. 1'
Gtr II (E A D G B E) - 'Gtr. 2'
Gtr III (E A D G B E) - 'Gtr. 1 (clean)'
Intro Main Riff
Fast Q=184
$
N.C. N.(E5)
[4/4] Gtr I
PM PM
Wx32 S S S S S S S S E E Q S S S S S S S S E E Q
 
 |-------------||-------------------------|------------------------|
 |-------------||o------------------------|------------------------|
 |-------------||--3h4p3h5s4p3p2p0--------|-3h4p3h5s4p3p2p0--------|
 |-------------||------------------2------|-----------------2------|
 |-------------||o------------------------|------------------------|
 |-------------||-------------------------|------------------------|

S S S S S S S S S S S S S S S S
 
 |---------------------------------|
 |---------------------------------|

|-3h4p3h5s4p3p2p0-3h4p3h5s4p3p2p0-|
 
 |---------------------------------|
 |---------------------------------|
 |---------------------------------|

PM [(B5)] PM
S S S S S S S S E E Q S S S S S S S S E E Q
 
 |-------------------------||--------------------------|
 |------------------------o||--------------------------|
 |-3h4p3h5s4p3p2p0---------||--------------------------|
 |-----------------2-------||-3h4p3h5s4p3p2p0----------|
 |------------------------o||-----------------2--------|
 |-------------------------||--------------------------|

[(A5)] PM[(E5)]
S S S S S S S S E E Q S S S S S S S S S S S S S S S S
 
 |------------------------|---------------------------------|
 |------------------------|---------------------------------|
 |------------------------|-3h4p3h5s4p3p2p0-3h4p3h5s4p3p2p0-|
 |-1h2p1h3p2p1p0----------|---------------------------------|
 |---------------3-0------|---------------------------------|
 |------------------------|---------------------------------|

S S S S S S S S E Q.
 
 |--------------------------||
 |--------------------------||
 |-3h4p3h5s4p3p2p0----------||
 |-----------------2--------||
 |--------------------------||
 |-------------------/x\----||

E5 N.C.
Gtr I
Q. E Q a E E a Q. E Q. E Q Q a E E E E
 
 |---------------------|---------------------|---------------------|
 |---------------------|---------------------|---------------------|
 |-9----7s9--(9)s12-12-|-12s14-----12-9----7-|-9--12--12s14-12s9s7-|
 |---------------------|---------------------|---------------------|
 |-7----5s7--(7)s10-10-|-10s12-----10-7----5-|-7--10--10s12-10s7s5-|
 |---------------------|---------------------|---------------------|

|
| Gtr II
| ~
| W +H.. E Q Q E E E E
 
 |---------------------|---------------------|---------------------|
 |---------------------|---------------------|---------------------|
 |---------------------|---------------------|---------------------|
 |---------------------|---------------------|-----5------7p=5-----|
 |-2-------------------|----(2)------------5h|=7---------------7p5-|
 |-0-------------------|----(0)--------------|---------------------|

~~ PM [E5] PM
Q. E E. S +E E +E Q E Q. E a Q Q Q E E
 
 |------------------------|-------------------|--------------------|
 |--------12--15-(15)-----|-------------------|--------------------|
 |-9----------14-(14)--12-|-(12)-9--7-9----12-|-12s14---12--9--7---|
 |---------9--12-(12)--12-|-(12)--------------|--------------------|
 |-7----------------------|------7--5-7----10-|-10s12---10--7--5-7-|
 |------0-----------------|-------------------|--------------------|

|
| ~~
| H. +Q Q. E H +W
 
 |------------------------|---------0-0-------|----(0)-------------|
 |------------------------|---------0-0-------|----(0)-------------|
 |------------------------|---------4-4-------|----(4)-------------|
 |------------------------|---------2-2-------|----(2)-------------|
 |-7--------------(7)\----|---------2-2-------|----(2)-------------|
 |------------------------|---0-----0-0-------|----(0)-------------|

N.C. B5
~~~~~~~~~~ PM| ~~~~~~~~~~~~~~~~ PM
E a Q. E E E E H +E +E E E Q. E +E Q E
 
 |--------------------------|--------------------|---------------------|
 |--------------------------|--------------------|---------------------|
 |-9-9s15-----14---12s==9s7-|-9-----(9)-(9)/-----|-11----11-(11)-11----|
 |--------------------------|--------------------|--9-----9--(9)--9----|
 |-7-7s13-----12---10s==7s5-|-7-----(7)-(7)/-----|---------------------|
 |--------------------------|----------------0-0-|-------------------0-|

|
| ~~ ~~~~~~~~~~~~~~~~
| |--3---|
| E a Q E E E E E E H. Q Q. E +E Q E
 
 |----------0---------------|--------------------|---------------------|
 |--------------------------|--------------------|---------------------|
 |---2s=3------3s2p===0-----|--------------------|-11----11-(11)-11--x-|
 |----------------------2p0-|-2------------------|--9-----9--(9)--9--x-|
 |--------------------------|--------------------|---------------------|
 |--------------------------|--------------------|---------------------|

[Bb5] [A5] [G5] [F5] [E5] /1____| \2.5
~~~ PM|
Q. E +E Q E Q. E +H Q +Q +Q E E
 
 |------------------|------0-(0)----|-----------------------|
 |------------------|------0-(0)----|-----------------------|
 |-10----9-(9)-7--5-|-4----4-(4)----|-----------------------|
 |--8----7-(7)-5--3-|-2----2-(2)----|-----------------------|
 |------------------|---------------|--7----(7)--(7)--------|
 |------------------|---------------|-------------------0-0-|

|
| ~~~
| Q. E +E Q E Q. E +H +H. Q
 
 |------------------|------0-(0)----|-(0)-------------------|
 |------------------|------0-(0)----|-(0)-------------------|
 |-10----9-(9)-7--5-|-4----4-(4)----|-(4)---------------4S==|
 |--8----7-(7)-5--3-|-2----2-(2)----|-(2)---------------2S==|
 |------------------|---------------|-----------------------|
 |------------------|---------------|-----------------------|

To Coda
[B5] ~~~ PM ~~~~~~~~~~ PM [Eb5] ~~~ PM[A5] [G5] [E5]
Q E E +E Q E Q E E +E Q E
 
 |-----------------------|-------------------|
 |-----------------------|-------------------|
 |-11-----11-(11)-11-----|-10-----9-(9)-7--4-|
 |--9---9--9--(9)--9-----|--8-----7-(7)-5--2-|
 |-----------------------|-------------------|
 |---------------------0-|------0------------|

|
| ~~~~~~~~~~~~~~~~~ ~~~
| Q. E +E Q E Q. E +E Q E
 
 |-----------------------|-------------------|
 |-----------------------|-------------------|
 |-11-----11-(11)-11--11-|-10-----9-(9)-7--x-|
 |--9------9--(9)--9---9-|--8-----7-(7)-5--x-|
 |-----------------------|-------------------|
 |-----------------------|-------------------|

[B5] ~~[F5] [Fmaj7]
a Q. E Q E E Q. E H
 
 |------------------------|--------0-------||
 |---------(0)-12--(12)/--|--------0-------||
 |-4s11-------------------|--------2-------||
 |-2s=9-------------------|--------3-------||
 |------------------------|-3----3---------||
 |------------------------|-1----1---------||

|
| H. +Q H. Q
 
 |------------------------|----------------||
 |------------------------|----------------||
 |------------------------|----------------||
 |------------------------|----------------||
 |----9-------------(9)S==|=3--------------||
 |----7-------------(7)S==|=1---------/x\--||

Main Riff
Gtr II[E5] [(E5)]
H E E Q W
|
[/]  
Gtr I
S S S S S S S S E E Q S S S S S S S S E E Q
 
 |------------------------|------------------------|
 |------------------------|------------------------|
 |-3h4p3h5s4p3p2p0--------|-3h4p3h5s4p3p2p0--------|
 |-----------------2------|-----------------2------|
 |------------------------|------------------------|
 |-------------------0----|-------------------0----|

W
S S S S S S S S S S S S S S S S
 
 |-----------------------------------|
 |-----------------------------------|

|-3h4p3h5s4p3p2p0-3h4p3h5s4p3p2p0---|
 
 |-----------------------------------|
 |-----------------------------------|
 |-----------------------------------|

PM
S S S S S S S S E E Q W W
 
 |------------------------|----------|-------||
 |------------------------|----------|-------||
 |-3h4p3h5s4p3p2p0--------|----------|-------||
 |-----------------2------|----------|-------||
 |------------------------|-xs=======|=x\----||
 |------------------------|-xs=======|=x\----||

Guitar Solo
[F#5]Gtr II
E E E E +H +W
| | | |
[/] [/] [/] [/] 
Gtr I
S S S S S S S S S S S S S S S S S S S S S S S S S S S S S S S S
 
 |-4-5p4p2---2-4-5p=4p2---2-4p2-5-2-|--4p2---2-4-5p4p2---2-4h5p4p2---2--|
 |---------5------------5-----------|------5-----------5-----------5----|
 |----------------------------------|-----------------------------------|
 |----------------------------------|-----------------------------------|
 |----------------------------------|-----------------------------------|
 |----------------------------------|-----------------------------------|

[E]| [E] [E] [E]| [+B] |
[/] [/] [/]  
 
 |-3-| |----6----|

S S S T T T S S S S E S S S S S S S S
 
 |-7-2h4-------5h7-2----5-2-7-5p2---7-5p2-|
 |-----------x-------5------------5-------|
 |---------x------------------------------|
 |-------x--------------------------------|
 |----------------------------------------|
 |----------------------------------------|

+W
|
[/]  
 
 |---5---| |---5---| |---5---|

S S S S S S S S S S S S S S S S S S S
 
 |--5-7p5p2---7p5p2-5-7p5p2---5-2-5-2-4h5p==|
 |----------5---------------5---2-5-2-------|
 |------------------------------------------|
 |------------------------------------------|
 |------------------------------------------|
 |------------------------------------------|

E E E E +H +W
| | | |
[/] [/] [/] [/] 
 
 |----6----| |-3-|

S S S S S S S S S S E S S S S S E E S S S S S S E S S E S S
 
 |-4-2-5-2h4h5p4p2--------------------|-----------------------------|
 |-----------------5p2--4-4p2p0h4p2h4p|==2-5p2h4p2---2-4-2h4p2-5p4p=|
 |------------------------------------|------------4----------------|
 |------------------------------------|-----------------------------|
 |------------------------------------|-----------------------------|
 |------------------------------------|-----------------------------|

E E E E +H +W
| | | |
[/] [/] [/] [/] 
 
 |---5---| |---5---|

S S S S S S S S S S S S S S S S S S S S S S S S S S E E Q
 
 |------------------------------------|-----------------------------||
 |-2-5-2-4p2-5-2-4--5p4p2---2h4p2-----|----------------------2/-----||
 |------------------------5-------5p2-|--5p4p2-5p4p2---4p2---2/-----||
 |------------------------------------|--------------4-----4--------||
 |------------------------------------|-----------------------------||
 |------------------------------------|-------------------------x\--||

[A5]E E E E +Q [G5/A]E E [A5] E E E E +H
| | | | | | |
[/] [/] [/] [/] [/] [/] [/]  
/1.5__________| \1/ \1/ \1/
 
 |----3----|

H H +H +Q +Q +Q
 
 |---------------------|---------------------------|
 |---------------------|---------------------------|
 |----------0----------|-(0)-------(0)--(0)--(0)---|
 |---------------------|---------------------------|
 |---------------------|---------------------------|
 |---------------------|---------------------------|

[A5] E E E E +Q [G5/A] E E [A5] E E E E +H
| | | | | | |
[/] [/] [/] [/] [/] [/] [/] 
\1/ \1/ \1/ \7_______|
 
 |------3------|

+Q +Q +Q +Q Q +E +Q. +Q E E
 
 |---------------------------------|-------------------3-0--|
 |---------------------------------|-------------------3-0--|
 |-(0)----(0)----(0)----(0)--<5>---|-(5)-(5)------(5)-------|
 |---------------------------<5>---|-(5)-(5)------(5)-------|
 |---------------------------------|------------------------|
 |---------------------------------|------------------------|

[A5]E E E E +Q [G5/A]E E
| | | |
[/] [/] [/] [/]  
 
 |----6----| |---5---| |----5----|

S S S S S S S S S S S S S S S S S S S S
 
 |-0-3-0-0-3p2p0-0-3p2p=0---3p2p0-2-3p2p==0---|
 |-0----------------------3-----------------3-|
 |--------------------------------------------|
 |--------------------------------------------|
 |--------------------------------------------|
 |--------------------------------------------|

[A5]  
[E]| [E] [E] [E]| [+B] |
[/] [/] [/]  
 
 |----6----| |----5----|

S S S S S S S S S S S S S S S S S E
 
 |-3p2p0---3p2p0---3p==2p0--5p3p0-5p3p0-3-|
 |-------3-------3------------------------|
 |----------------------------------------|
 |----------------------------------------|
 |----------------------------------------|
 |----------------------------------------|

[A5]E E E E +Q [G5/A]E E [A5]E E E E +H
| | | | | | |
[/] [/] [/] [/] [/] [/] [/] 
S S S S S S E S S S S S S S S S S S S S S S S S S E Q
 
 |-2h3p2p0------------------------|---------------------------||
 |---------4----------------------|---------------------------||
 |-----------5----5p4-7p5p4---4h5p|=4---4----------------4----||
 |--------------------------7-----|---7---7-5p4h7p5p=4-7------||
 |--------------------------------|---------------------------||
 |--------------------------------|---------------------------||

[C5]E E E E +Q E E E E E E E E E [Bb5/C5]E
| | | | | | | | | | | |
[/] [/] [/] [/] [/] [/] [/] [/] [/] [/] [/] [/] 
E. S +E E +E E E E E. S +E E +E E E E
 
 |-------------------------|------------------------|
 |-------------------------|------------------------|
 |-8----8-(8)-8-(8)-7-8-10-|-8----8-(8)-8-(8)-7-5-7-|
 |-8----8-(8)-8-(8)-7-8-10-|-8----8-(8)-8-(8)-7-5-7-|
 |-------------------------|------------------------|
 |-------------------------|------------------------|

E E E E +Q E E E E E E E E E [Bb5/C]E
| | | | | | | | | | | |
[/] [/] [/] [/] [/] [/] [/] [/] [/] [/] [/] [/] 
PM|
Q Q Q Q E Q E Q E E
 
 |------------------|--------------------|
 |-----8---10--11---|-10-8---10-8--------|
 |-7---8---10--11---|-10-8---10-8--------|
 |-7---8---10--11---|-10-8---10-8--------|
 |------------------|---------------9-9--|
 |------------------|--------------------|

[C5] E E E E +Q E E E E E E E E E [Bb5/CC5] E E E E E +Q E E
| | | | | | | | | | | | | | | |
[/] [/] [/] [/] [/] [/] [/] [/] [/] [/] [/] [/] [/] [/] [/] [/] 
Q. E E E E E E Q E E E E E +Q E E E E E E
 
 |------------------------|------------------------|--------------------------|
 |------------------------|------------------------|--------------------------|
 |-11------12-12-12-13-13-|-13-14---14-15-15-15-16-|-(16)---17-17-17-18-18-18-|
 |-11------12-12-12-13-13-|-13-14---14-15-15-15-16-|-(16)---17-17-17-18-18-18-|
 |------------------------|------------------------|--------------------------|
 |------------------------|------------------------|--------------------------|

E E E E E E E [Bb5/CEb5]E E E E E +Q E E
| | | | | | | | | | | | |
[/] [/] [/] [/] [/] [/] [/] [/] [/] [/] [/] [/] [/] 
 
 |----3----|

E E E E +Q Q Q Q Q H
 
 |-------------------------||----------------16------|
 |-------------------------||-----------16-----------|
 |-19-19-19-20-(20)\-------||------15----------------|
 |-19-19-19-20-(20)\-------||-13---------------------|
 |-------------------------||------------------------|
 |-------------------------||------------------------|

[E]| [E]| [E]| [E]| [E]| [E]| [E]| [E]|
[/] [/] [/] [/] [/] [/] [/] [/]  
S S Q E S S Q.
 
 |-19-19-19-------16-16-16------|
 |-17-17-17-------14-14-14------|
 |-16-16-16-------13-13-13------|
 |-14-14-14---14\-11-11-11------|
 |------------------------------|
 |------------------------------|

E E E E +Q E E E E E E E E E E
| | | | | | | | | | | |
[/] [/] [/] [/] [/] [/] [/] [/] [/] [/] [/] [/] 
E E E E Q S S S S S S S S E E E E E E
 
 |-18-18-18-18-18--------------|-21-21-21-21-21----19-19-19---|
 |-16-16-16-16-16--------------|-19-19-19-19-19----17-17-17---|
 |-15-15-15-15-15--18-18-18-18-|-18-18-18-18-18-16-16-16-16---|
 |-13-13-13-13-13--16-16-16-16-|-16-16-16-16-16s14-14-14-14---|
 |-----------------------------|------------------------------|
 |-----------------------------|------------------------------|

E E E E +Q E E
| | | | |
[/] [/] [/] [/] [/] 
 
 |------5------| |------5------|

S S S S S S S S S S S S S S S S S S
 
 |-18p15p11-18p16p11-16h==18p16p11----18p16p11-18p16p==11-16-|
 |---------------------------------16------------------------|
 |-----------------------------------------------------------|
 |-----------------------------------------------------------|
 |-----------------------------------------------------------|
 |-----------------------------------------------------------|

[E] [E]| [E]| [E]| [E]| [E]| [E]| [E]|
[/] [/] [/] [/] [/] [/] [/] 
 
 |------5------| |------5------| |------6-------|

S S S S S S S S S S S S S S S S S S S S
 
 |-17p16---------18-11-17-17p11----18p16---------17p16p11----18p16---|
 |-------11h==16----------------11---------11-16----------16---------|
 |-------------------------------------------------------------------|
 |-------------------------------------------------------------------|
 |-------------------------------------------------------------------|
 |-------------------------------------------------------------------|

E E E E +Q E E
| | | | |
[/] [/] [/] [/] [/] 
 
 |------5------| |------6-------| |------6-------| |------6-------|

S S S S S S S S S S S S S S S S S S S S S S S
 
 |-------17p==16p11----18p16-------17p16p11----18p16p11-16h17p16p11-------|
 |-11h16------------16-------11h16----------16----------------------11h16-|
 |------------------------------------------------------------------------|
 |------------------------------------------------------------------------|
 |------------------------------------------------------------------------|
 |------------------------------------------------------------------------|

[E] [E]| [E]| [E]| [E]| [E]| [E]| [E]|
[/] [/] [/] [/] [/] [/] [/]  
q Q Q Q
 
 |-18/-----------------||
 |---------------------||
 |---------------------||
 |-------x\------------||
 |------------xs==x\---||
 |------------xs==x\---||

[B5]E E E E +Q [A5/B]E E [B5]E E E E +Q [A5/B]E E
| | | | | | | | | |
[/] [/] [/] [/] [/] [/] [/] [/] [/] [/] 
E. S +E E +E E E E E. S +E E +E E E E
 
 |------------------------|-4----4-(4)-4-(4)-2-4---|
 |------------------------|------------2-(2)-2-2---|
 |-4----4-(4)-4-(4)-2-4-2-|------------2-(2)-2-2-2-|
 |-4----4-(4)-4-(4)-2-4-2-|----------------------2-|
 |------------------------|------------------------|
 |------------------------|------------------------|

[B5]E E E E +Q [A5/B]E E [B5]E E E E +Q [A5/B]E E
| | | | | | | | | |
[/] [/] [/] [/] [/] [/] [/] [/] [/] [/] 
E. S +E E +E E E E E. S +E E E E E E
 
 |------------------------|-4----4-(4)---------------|
 |------------------------|-2----2-(2)---------------|
 |-4----4-(4)-4-(4)-2-4-2-|-2----2-(2)-------2h4-4---|
 |-4----4-(4)-4-(4)-2-4-2-|------------------2h4-4---|
 |------------------------|--------------------------|
 |------------------------|------------xs=x\---------|

[B5] E E E E +Q [A5/B]E E [B5]E E E E +Q [A5/B]E E [B5]E E E E +Q [A5/B]E E [B5]Q [F5]H.
| | | | | | | | | | | | | | | | |
[/] [/] [/] [/] [/] [/] [/] [/] [/] [/] [/] [/] [/] [/] [/] [/] [/] 
W W W Q H.
 
 |---------------------|--------------------|--------------------|-----0-----||
 |---------------------|--------------------|--------------------|-----0-----||
 |---------------------|--------------------|--------------------|-----2-----||
 |---------------------|--------------------|--------------------|-----3-----||
 |-h2tr0---------------|-2tr0---------------|-2tr0---------------|-----3-----||
 |---------------------|--------------------|--------------------|-x\--1-----||

Break
N.(E5) Bb6 G6
Gtr III
 
 PM--------------------|

S S Q S S Q S S E +E E Q H 4x W H. +Q
 
 ||----------------------|----------------||-----------|----------------|
 ||o---------------------|---------------o||-^5--------|-^2-------------|
 ||----------------------|----------------||-^7--------|-^4-------------|
 ||----------------------|----------------||-^5--------|-^2-------------|
 ||o---------------------|---------------o||-^8--------|-^5-------(5)/--|
 ||--0-0-0--0-0-0--0-0-0-|-(0)------------||-^6--------|-^3-------(3)/--|

[Ebmaj7add6] [Cmaj7add6] [A6] [F6] <
W W W Q +H Q
 
 |-^10--------|-^-7--------|-----------|---------------||
 |-^10--------|-^-7--------|-^4--------|-^0--(0)----0--||
 |-^12--------|-^-9--------|-^6--------|-^2--(2)-------||
 |-^10--------|-^-7--------|-^4--------|-^0--(0)-------||
 |-^13--------|-^10--------|-^7--------|-^3--(3)-------||
 |-^11--------|-^-8--------|-^5--------|-^1--(1)-------||

[B5]Gtr II
Q +H. W
| |
[/] [/]  
Gtr I
S S S S S S S S S S S S S S S S S S S S S S S S S S S S S S E
 
 ||---------------------------------------|--------------------------------||
 ||o-12p11p0-11p10p0-10p9p0-9p8p0-8p7p0-7p|=6p0-6p5p0-5p4p0-4p3p0-3s2p1p0-o||
 ||---------------------------------------|--------------------------------||
 ||---------------------------------------|--------------------------------||
 ||o--------------------------------------|-------------------------------o||
 ||---------------------------------------|--------------------------------||

Q +H Q Q Q Q Q
| | | | | |
/ / / x / x
S S S S S S S S S S S S S S S S S S S S S S S S S S S S S S E
 
 |--------------------------------------|--------------------------------|
 |-12p11p0-11p10p0-10p9p0-9p8p0-8p7p0-7p|=6p0-6p5p0-5p4p0-4p3p0-3s2p1p0--|
 |--------------------------------------|--------------------------------|
 |--------------------------------------|--------------------------------|
 |--------------------------------------|--------------------------------|
 |--------------------------------------|--------------------------------|

Q Q Q Q
| | | |
/ x / x
S S S S S S S S S S S S S S S S
 
 |--------------------------------------------|
 |-12p11p0-13p11p0-14p13p0-15p14p0-16p15p0-17p|
 |--------------------------------------------|
 |--------------------------------------------|
 |--------------------------------------------|
 |--------------------------------------------|

D.S. al Coda
Q Q Q Q
| | | |
/ x / /
S S S S S S S S E +Q.
 
 |----------------------19-(19)b20\----||
 |-16p0-18p17p0-19p18p0----------------||
 |-------------------------------------||
 |-------------------------------------||
 |-------------------------------------||
 |-------------------------------------||

&
[B5]Gtr II
W
|
[/]  
Gtr I
PM----|
S S S S S S S S S S S S S S E
 
 |-----------------14-14-14-14-14-14----|
 |-----------------12-12-12-12-12-12----|
 |-----------------11-11-11-11-11-11-11s|
 |-9-9-9-9-9-9-9-9--9--9--9--9--9--9--9s|
 |--------------------------------------|
 |--------------------------------------|

[A5]W
|
[/]  
E E S S S S +S S S S E E
 
 |----------------12-(12)-----------------|
 |-------10-10-10-10-(10)-10-10-10-10-----|
 |-x\-/9--9--9--9----------9--9--9--9-9S==|
 |-x\-/7--7--7--7----------7--7--7--7-7S==|
 |----------------------------------------|
 |----------------------------------------|

[B5] H. Q
| |
[/] [/] 
E S S S S S S S S S S S S S S
 
 |-----------------------14-14-----------------|
 |-----12-12-12-12-12-12-------12-12-----------|
 |-11--11-11-11-11-11-11-------------11-11-----|
 |--9---9--9--9--9--9--9-------------------9-9-|
 |---------------------------------------------|
 |---------------------------------------------|

[F5] H +E E q
| | | |
[/] [/] [/] [/] 
S S S S S S S S S S S S S S E
 
 |-------------------------15-15-15-15-15-15---|
 |-------13-13-13-13-13-13-13-13-13-13-13-13---|
 |-12-12-12-12-12-12-12-12-12-12-12-12-12-12---|
 |-10-10-10-10-10-10-10-10-10-10-10-10-10-10-9-|
 |---------------------------------------------|
 |---------------------------------------------|

[B5] [F5]  
[B]| [B]|
[/] [/]  
S S S S S S S S S S S S S S S S
 
 |-14-14-14-14-14-14-14-14-12-12-12-12-12-12-12-12-|
 |-12-12-12-12-12-12-12-12-10-10-10-10-10-10-10-10-|
 |-11-11-11-11-11-11-11-11--9--9--9--9--9--9--9--9-|
 |--9--9--9--9--9--9--9--9--7--7--7--7--7--7--7--7-|
 |-------------------------------------------------|
 |-------------------------------------------------|

[B5] [F5]  
[B]| [B]|
[/] [/]  
S S S S S S S S S S S S S S S S
 
 |-14-14-14-14-14-14-14-14-15-15-15-15-15-15-------|
 |-12-12-12-12-12-12-12-12-13-13-13-13-13-13-------|
 |-11-11-11-11-11-11-11-11-12-12-12-12-12-12-11-11-|
 |--9--9--9--9--9--9--9--9-10-10-10-10-10-10-------|
 |-------------------------------------------------|
 |-------------------------------------------------|

[B5] Q [F5] Q [B5] Q [F5] Q [B5] Q [F5] Q [B5]Q [F5]Q
| | | | | | | |
[/] [/] [/] [/] [/] [/] [/] [/] 
TP
E E E S S S S E E E E S S Q Q Q
 
 |-14-14-15-15-16-16-16-16-17-17-|-18-18-18-19/---------||
 |-12-12-13-13-14-14-14-14-15-15-|-16-16-16-17/---------||
 |-11-11-12-12-13-13-13-13-14-14-|-15-15-15-16/---------||
 |--9--9-10-10-11-11-11-11-12-12-|-13-13-13-14/---------||
 |-------------------------------|----------------------||
 |-------------------------------|---------------xs=x\--||

Main Riff/Outro
H E [E5]E Q [(E5)]W
|
[/]  
S S S S S S S S E E Q S S S S S S S S E E Q
 
 |------------------------|------------------------|
 |------------------------|------------------------|
 |-3h4p3h5s4p3p2p0--------|-3h4p3h5s4p3p2p0--------|
 |-----------------2------|-----------------2------|
 |------------------------|------------------------|
 |-------------------0----|-------------------0----|

W
S S S S S S S S S S S S S S S S
 
 |-----------------------------------|
 |-----------------------------------|

|-3h4p3h5s4p3p2p0-3h4p3h5s4p3p2p0---|
 
 |-----------------------------------|
 |-----------------------------------|
 |-----------------------------------|
 PM PM--------------------|

S S S S S S S S E E Q S S Q S S Q S S E +E E Q H
 
 |------------------------|---------------------|---------------*|
 |------------------------|---------------------|---------------*|
 |-3h4p3h5s4p3p2p0--------|---------------------|---------------*|
 |-----------------2------|---------------------|---------------*|
 |------------------------|---------------------|---------------*|
 |------------------------|-0-0-0--0-0-0--0-0-0-|-(0)-----------*|

Duration Legend
 
 ---------------
 W - whole; H - half; Q - quarter; E - 8th; S - 16th; T - 32nd; X - 64th; a - acciaccatura

+ - note tied to previous; . - note dotted; .. - note double dotted
Uncapitalized letters represent notes that are staccato (1/2 duration)
Irregular groupings are notated above the duration line
Duration letters will always appear directly above the note/fret number it represents the
duration for. Duration letters with no fret number below them represent rests. Multi-
bar rests are notated in the form Wxn, where n is the number of bars to rest for. Low
melody durations appear below the staff
Tablature Legend
 
 ----------------

h - hammer-on
p - pull-off
b - bend
pb - pre-bend
r - bend release (if no number after the r, then release immediately)
/\ - slide into or out of (from/to "nowhere")
s - legato slide
S - shift slide
<n> - natural harmonic
(n) - artificial harmonic
n(n) - tapped harmonic
~ - vibrato
tr - trill
T - tap
TP - trem. picking
PM - palm muting
\n/ - tremolo bar dip; n = amount to dip
\n - tremolo bar down
n/ - tremolo bar up
/n\ - tremolo bar inverted dip
= - hold bend; also acts as connecting device for hammers/pulls
<> - volume swell (louder/softer)
x - on rhythm slash represents muted slash
o - on rhythm slash represents single note slash
Misc Legend
 
 -----------

| - bar
|| - double bar
||o - repeat start
o|| - repeat end
*| - double bar (ending)
: - bar (freetime)
$ - Segno
& - Coda
Tempo markers - <E/E./Q/Q./H/H.> = BPM(8/16=s8/s16), where s8 = swing 8ths, s16 = swing 16ths

Important: The song above is NOT stored on the Chordie server. The original song is hosted at www.xguitar.com. Chordie works as a search engine and provides on-the-fly formatting. Chordie does not index songs against artists'/composers' will. To remove this song please click here.

Text color:
Chord color:
Chord grids: 
Font size:    
Page size: 

A5 A5/B A6 B B5 Bb5 Bb5/C C5 E E5 Eb5 F#5 F5 F6 Fmaj7 G5 G5/A
Rate #1 of 5 versions

Login - add to songbook

SHARE PAGE  



You need to log in to post comments