Guitar Tabs, Chords and Lyrics
Server problems seems to be fixed. Chordie has been experiencing problems with songs disappearing. These issues now seems to be fixed, but still verifying the fix. If you find anything strange, please email admin@chordie.com.


Crushing Day  Joe Satriani

Title:Crushing day
Album:Surfing with the Alien
Tuning:Standard
My Email:kirkhammettlive@hotmail.com
Gtr 1
[C5] [C(b5)]  
 
 E||----------------------------||----------------------------||
 B||----------------------------||----------------------------||
 G||*--5--------5--------------*||*--5--------5--------------*||
 D||*--5--------5--------------*||*--4--------4--------------*||
 A||---3--3--3--3--3--3--3--3---||---3--3--3--3--3--3--3--3---||
 E||----------------------------||----------------------------||

[C5] [C(b5)]  
 
 ----------------------------||--------------------------|
 ----------------------------||--------------------------|
 *--5--------5--------------*||--5--------5--------------|
 *--5--------5--------------*||--4--------4--------------|
 ---3--3--3--3--3--3--3--3---||--3--3--3--3--3--3--3--3--|
 ----------------------------||--------------------------|

[C5]  
 
 --------------------------|--------------------------|
 --------------------------|--------------------------|
 --5-----------------------|--5--------5--------------|
 --4-----------------------|--5--------5--------------|
 --3--------------0--1--2--|--3--3--3--3--3--3--3--3--|
 -----0--1--2--3-----------|--------------------------|

[C5] [D5]  
 
 --------------------------|--------------------------|
 --------------------------|--------------------------|
 --5--------5--------------|--7--------7--------------|
 --5--------5--------------|--7--------7--------------|
 --3--3--3--3--3--3--3--3--|--5--5--5--5--5--5--5--5--|
 --------------------------|--------------------------|

[A5] [C5]  
 
 --------------------------|--------------------------|
 --------------------------|--------------------------|
 --7--------7-----------2--|--5--------5--------------|
 --7--------7-----------2--|--5--------5--------------|
 --5--5--5--5--5--5--5--0--|--3--3--3--3--3--3--3--3--|
 --------------------------|--------------------------|

[C5] [D5]  
 
 --------------------------|--------------------------|
 --------------------------|--------------------------|
 --5--------5--------------|--7--------7--------------|
 --5--------5--------------|--7--------7--------------|
 --3--3--3--3--3--3--3--3--|--5--5--5--5--5--5--5--5--|
 --------------------------|--------------------------|

[A5] [C5]  
 
 --------------------------|--------------------------|
 --------------------------|--------------------------|
 --7--------7-----------2--|--5--------5--------------|
 --7--------7-----------2--|--5--------5--------------|
 --5--5--5--5--5--5--5--0--|--3--3--3--3--3--3--3--3--|
 --------------------------|--------------------------|

[C5] [D5]  
 
 --------------------------|--------------------------|
 --------------------------|--------------------------|
 --5--------5--------------|--7--------7--------------|
 --5--------5--------------|--7--------7--------------|
 --3--3--3--3--3--3--3--3--|--5--5--5--5--5--5--5--5--|
 --------------------------|--------------------------|

[A5] [Gm]  
 
 --------------------------|------------------------------|
 --------------------------|--11----------11----11--------|
 --7--------7-----------2--|--12----------12----12--------|
 --7--------7-----------2--|--12----------12----12--------|
 --5--5--5--5--5--5--5--0--|--10--10--10--10----10--x--6--|
 --------------------------|------------------------------|

[Eb] [F]  
 
 -------------------------|----------------------------|
 --8--------8----8--------|--10--------10----10--------|
 --8--------8----8--------|--10--------10----10--------|
 --8--------8----8--------|--10--------10----10--------|
 --6--6--6--6----6--x--8--|--8---8--8--8-----8---x--8--|
 -------------------------|----------------------------|

[Gm]  
 
 -----------------------------|------------------------------|
 --10--------10----10---------|--11----------11----11--------|
 --10--------10----10---------|--12----------12----12--------|
 --10--------10----10---------|--12----------12----12--------|
 --8---8--8--8-----8---x--10--|--10--10--10--10----10--x--6--|
 -----------------------------|------------------------------|

[Eb] [F]  
 
 -------------------------|----------------------------|
 --8--------8----8--------|--10--------10----10--------|
 --8--------8----8--------|--10--------10----10--------|
 --8--------8----8--------|--10--------10----10--------|
 --6--6--6--6----6--x--8--|--8---8--8--8-----8---x--8--|
 -------------------------|----------------------------|

[C5]  
 
 ----------------------------||----------------------------||
 --10--------10----10--------||----------------------------||
 --10--------10----10--------||*--5--------5--------------*||
 --10--------10----10--------||*--5--------5--------------*||
 --8---8--8--8-----8---x--3--||---3--3--3--3--3--3--3--3---||
 ----------------------------||----------------------------||

[C(b5)] [C(b5)]  
 
 --------------------------|--------------------------|
 --------------------------|--------------------------|
 --5--------5--------------|--5--------5--------------|
 --4--------4--------------|--4--------4--------------|
 --3--3--3--3--3--3--3--3--|--3--3--3--3--3--3--3--3--|
 --------------------------|--------------------------|

[C5] [C5]  
 
 --------------------------|--------------------------|
 --------------------------|--------------------------|
 --5--------5--------------|--5--------5--------------|
 --5--------5--------------|--5--------5--------------|
 --3--3--3--3--3--3--3--3--|--3--3--3--3--3--3--3--3--|
 --------------------------|--------------------------|

[C(b5)]  
 
 --------------------------|--------------------------|
 --------------------------|--------------------------|
 --5--------5--------------|--5-----------------------|
 --4--------4--------------|--4-----------------------|
 --3--3--3--3--3--3--3--3--|--3--------------0--1--2--|
 --------------------------|-----0--1--2--3-----------|

[C5]  
 
 --------------------------|--------------------------|
 --------------------------|--------------------------|
 --5--------5--------------|--5--------5--------------|
 --5--------5--------------|--5--------5--------------|
 --3--3--3--3--3--3--3--3--|--3--3--3--3--3--3--3--3--|
 --------------------------|--------------------------|

[D5] [A5]  
 
 --------------------------|--------------------------|
 --------------------------|--------------------------|
 --7--------7--------------|--7--------7-----------2--|
 --7--------7--------------|--7--------7-----------2--|
 --5--5--5--5--5--5--5--5--|--5--5--5--5--5--5--5--0--|
 --------------------------|--------------------------|

[C5]  
 
 --------------------------|--------------------------|
 --------------------------|--------------------------|
 --5--------5--------------|--5--------5--------------|
 --5--------5--------------|--5--------5--------------|
 --3--3--3--3--3--3--3--3--|--3--3--3--3--3--3--3--3--|
 --------------------------|--------------------------|

[D5] [A5]  
 
 --------------------------|--------------------------|
 --------------------------|--------------------------|
 --7--------7--------------|--7--------7-----------2--|
 --7--------7--------------|--7--------7-----------2--|
 --5--5--5--5--5--5--5--5--|--5--5--5--5--5--5--5--0--|
 --------------------------|--------------------------|

[C5]  
 
 --------------------------|--------------------------|
 --------------------------|--------------------------|
 --5--------5--------------|--5--------5--------------|
 --5--------5--------------|--5--------5--------------|
 --3--3--3--3--3--3--3--3--|--3--3--3--3--3--3--3--3--|
 --------------------------|--------------------------|

[D5] [A5]  
 
 --------------------------|--------------------------|
 --------------------------|--------------------------|
 --7--------7--------------|--7--------7-----------2--|
 --7--------7--------------|--7--------7-----------2--|
 --5--5--5--5--5--5--5--5--|--5--5--5--5--5--5--5--0--|
 --------------------------|--------------------------|

[Gm] [Eb]  
 
 ------------------------------|-------------------------|
 --11----------11----11--------|--8--------8----8--------|
 --12----------12----12--------|--8--------8----8--------|
 --12----------12----12--------|--8--------8----8--------|
 --10--10--10--10----10--x--6--|--6--6--6--6----6--x--8--|
 ------------------------------|-------------------------|

[F]  
 
 ----------------------------|-----------------------------|
 --10--------10----10--------|--10--------10----10---------|
 --10--------10----10--------|--10--------10----10---------|
 --10--------10----10--------|--10--------10----10---------|
 --8---8--8--8-----8---x--8--|--8---8--8--8-----8---x--10--|
 ----------------------------|-----------------------------|

[Gm] [Eb] [Eb]  
 
 ------------------------------|-------------------------|
 --11----------11----11-----8--|--8--------8----8--------|
 --12----------12----12-----8--|--8--------8----8--------|
 --12----------12----12-----8--|--8--------8----8--------|
 --10--10--10--10----10--x--6--|--6--6--6--6----6--x--8--|
 ------------------------------|-------------------------|

[F]  
 
 ----------------------------|----------------------------|
 --10--------10----10--------|--10--------10----10--------|
 --10--------10----10--------|--10--------10----10--------|
 --10--------10----10--------|--10--------10----10--------|
 --8---8--8--8-----8---x--8--|--8---8--8--8-----8---x--3--|
 ----------------------------|----------------------------|

[Em] [C] [D] [Dsus4] [D]  
 
 -------------------------|--3--------3----3--------|-------------------------|
 --8--------8----8--------|--5--------5----5--7-----|--8--------7----7--------|
 --9--------9----9--------|--5--------5----5--7-----|--7--------7----7--------|
 --9--------9----9--------|--5--------5----5--7-----|--7--------7----7--------|
 --7--7--7--7----7--x--3--|--3--3--3--3----3--5--5--|--5--5--5--5----5--5--5--|
 -------------------------|-------------------------|-------------------------|

[Dsus2] [D] [E] [Em] [C] [D]  
 
 -------------------------|-------------------------|--3--------3----3--------|
 --5--------7----7--------|--8--------8----8--------|--5--------5----5--7-----|
 --7--------7----7--------|--9--------9----9--------|--5--------5----5--7-----|
 --7--------7----7--------|--9--------9----9--------|--5--------5----5--7-----|
 --5--5--5--5----5--x--7--|--7--7--7--7----7--x--3--|--3--3--3--3----3--5--5--|
 -------------------------|-------------------------|-------------------------|

[Dsus4] [D] [Dsus2] [D] [E]  
 
 -------------------------|-------------------------|
 --8--------7----7--------|--5--------7----7--------|
 --7--------7----7--------|--7--------7----7--------|
 --7--------7----7--------|--7--------7----7--------|
 --5--5--5--5----5--5--5--|--5--5--5--5----5--x--x--|
 -------------------------|-------------------------|

[Gm] [Eb]  
 
 ------------------------------|-------------------------|
 --11----------11----11--------|--8--------8----8--------|
 --12----------12----12--------|--8--------8----8--------|
 --12----------12----12--------|--8--------8----8--------|
 --10--10--10--10----10--x--6--|--6--6--6--6----6--x--8--|
 ------------------------------|-------------------------|

[F]  
 
 ----------------------------|----------------------------|
 --10--------10----10--------|--10--------10----10--------|
 --10--------10----10--------|--10--------10----10--------|
 --10--------10----10--------|--10--------10----10--------|
 --8---8--8--8-----8---x--8--|--8---8--8--8-----8---x--3--|
 ----------------------------|----------------------------|

[C5]  
 
 --------------------------|--------------------------|
 --------------------------|--------------------------|
 --5--------5--------------|--5--------5--------------|
 --5--------5--------------|--5--------5--------------|
 --3--3--3--3--3--3--3--3--|--3--3--3--3--3--3--3--3--|
 --------------------------|--------------------------|

[C(b5)] [C(b5)]  
 
 --------------------------|--------------------------|
 --------------------------|--------------------------|
 --5--------5--------------|--5--------5--------------|
 --4--------4--------------|--4--------4--------------|
 --3--3--3--3--3--3--3--3--|--3--3--3--3--3--3--3--3--|
 --------------------------|--------------------------|

[C5] [C5]  
 
 --------------------------|--------------------------|
 --------------------------|--------------------------|
 --5--------5--------------|--5--------5--------------|
 --5--------5--------------|--5--------5--------------|
 --3--3--3--3--3--3--3--3--|--3--3--3--3--3--3--3--3--|
 --------------------------|--------------------------|

[C(b5)] [G5]  
 
 --------------------------|-------------------|-------------------|
 --------------------------|-------------------|-------------------|
 --5--------5--------------|-------------------|-------------------|
 --4--------4--------------|--4---------------|--5----------------|
 --3--3--3--3--3--3--3--3--|-------------------|--5----------------|
 --------------------------|-------------------|--3----------------|

[G5] [G5]  
 
 ------------------|-------------------|------------------|-------------------|
 ------------------|-------------------|------------------|-------------------|
 ------------------|-------------------|------------------|-------------------|
 ------------------|--5----------------|------------------|--5----------------|
 ------------------|--5----------------|------------------|--5----------------|
 ------------------|--3----------------|------------------|--3----------------|

[G5] [G5]  
 
 ------------------|-------------------|------------------|-------------------|
 ------------------|-------------------|------------------|-------------------|
 ------------------|-------------------|------------------|-------------------|
 ------------------|--5----------------|------------------|--5----------------|
 ------------------|--5----------------|------------------|--5----------------|
 ------------------|--3----------------|------------------|--3----------------|

[G5]  
 
 ---------------------|-------------------|---------------------|
 ---------------------|-------------------|---------------------|
 ---------------------|-------------------|---------------------|
 ---------------------|--5----------------|---------------------|
 ---------------------|--5----------------|---------------------|
 ------------x--x--0--|--3----------------|------------x--x--0--|

[G5] [G5]  
 
 -------------------|---------------------|-------------------|
 -------------------|---------------------|-------------------|
 -------------------|---------------------|-------------------|
 --5----------------|---------------------|--5----------------|
 --5----------------|---------------------|--5----------------|
 --3----------------|------------x--x--0--|--3----------------|

[Gm7] [G7sus4] [Gm7] [Dm7]  
 
 -------------------||--------------------------|-------------------------|
 -------------------||--------------------------|----------------------6--|
 ----------------3--||*----5-----------------3--|----5--------5p-3-----5--|
 ----------------3--||*----3-----------------3--|----3--------3-----0--0--|
 -------------------||--------------------------|-------------------------|
 -------------------||--------3--3--3--3--3-----|-------3--3--------------|

[D7sus4] [Dm7] [D7sus4] [Gm7] [G7sus4] [Gm7]  
 
 -------------------------|--------------------------||-------------------------|
 ----8-----------------6--|----8---------------------||-------------------------|
 ----5-----------------5--|----5-----------------3--*||----5-----------------3--|
 ----0--0--0--0--0--0--0--|----0--0--0--0--0--0--3--*||----3-----------------3--|
 -------------------------|--------------------------||-------------------------|
 -------------------------|--------------------------||-------3--3--3--3--3-----|

[Dm7] [D7sus4] [Dm7] [D7sus4] [Gm7]  
 
 -------------------------|-------------------------|-------------------------|
 ----------------------6--|----8-----------------6--|----8--------------------|
 ----5--------5p-3-----5--|----5-----------------5--|----5-----------------3--|
 ----3--------3-----0--0--|----0--0--0--0--0--0--0--|----0--0--0--0--0--0--3--|
 -------------------------|-------------------------|-------------------------|
 -------3--3--------------|-------------------------|-------------------------|

[G7sus4] [Gm7] [Dm7] [D7sus4] [Dm7]  
 
 -------------------------|-------------------------|-------------------------|
 -------------------------|----------------------6--|----8-----------------6--|
 ----5-----------------3--|----5--------5p-3-----5--|----5-----------------5--|
 ----3-----------------3--|----3--------3-----0--0--|----0--0--0--0--0--0--0--|
 -------------------------|-------------------------|-------------------------|
 -------3--3--3--3--3-----|-------3--3--------------|-------------------------|

[D7sus4] [Gm7] [G7sus4] [Gm7] [Dm7]  
 
 -------------------------|-------------------------|--------------------------|
 ----8--------------------|-------------------------|-----------------------6--|
 ----5-----------------3--|----5--------------------|--3--------3-----------5--|
 ----0--0--0--0--0--0--3--|----3--------------------|--3--------3-----------0--|
 -------------------------|-------------------------|--------------------------|
 -------------------------|-------3--3--3--3--3--3--|-----3--3-----3--3--3-----|

[D7sus4] [Dm7] [Gm7] [G7sus4]  
 
 -------------------------|--------------------------|-------------------------|
 ----8--------------------|--6--------6--------------|-------------------------|
 ----5--------------------|--5--------5-----------3--|----5--------------------|
 ----0--0--0--0--0--0--0--|--0--0--0--0--0--0--0--3--|----3--------------------|
 -------------------------|--------------------------|-------------------------|
 -------------------------|--------------------------|-------3--3--3--3--3--3--|

[Gm7] [Dm7] [D7sus4] [Dm7] [Gm7]  
 
 --------------------------|-------------------------|--------------------------|
 -----------------------6--|----8--------------------|--6--------6--------------|
 --3--------3-----------5--|----5--------------------|--5--------5-----------3--|
 --3--------3-----------0--|----0--0--0--0--0--0--0--|--0--0--0--0--0--0--0--3--|
 --------------------------|-------------------------|--------------------------|
 -----3--3-----3--3--3-----|-------------------------|--------------------------|

[G7sus4] [Gm7] [Dm7] [D7sus4]  
 
 -------------------------|--------------------------|-------------------------|
 -------------------------|-----------------------6--|----8--------------------|
 ----5--------------------|--3--------3-----------5--|----5--------------------|
 ----3--------------------|--3--------3-----------0--|----0--0--0--0--0--0--0--|
 -------------------------|--------------------------|-------------------------|
 -------3--3--3--3--3--3--|-----3--3-----3--3--3-----|-------------------------|

[Dm7] [Gm7] [G7sus4] [Gm7] [Dm7]  
 
 --------------------------|-------------------------|--------------------------|
 --6--------6--------------|-------------------------|-----------------------6--|
 --5--------5-----------3--|----5--------------------|--3--------3-----------5--|
 --0--0--0--0--0--0--0--3--|----3--------------------|--3--------3-----------0--|
 --------------------------|-------------------------|--------------------------|
 --------------------------|-------3--3--3--3--3--3--|-----3--3-----3--3--3-----|

[D7sus4] [Dm7] [Gm7] [G7sus4]  
 
 -------------------------|--------------------------|-------------------------|
 ----8--------------------|--6--------6--------------|-------------------------|
 ----5--------------------|--5--------5-----------3--|----5--------------------|
 ----0--0--0--0--0--0--0--|--0--0--0--0--0--0--0--3--|----3--------------------|
 -------------------------|--------------------------|-------------------------|
 -------------------------|--------------------------|-------3--3--3--3--3--3--|

[Gm7] [Dm7] [D7sus4] [Dm7] [Gm7]  
 
 --------------------------|-------------------------|--------------------------|
 -----------------------6--|----8--------------------|--6--------6--------------|
 --3--------3-----------5--|----5--------------------|--5--------5-----------3--|
 --3--------3-----------0--|----0--0--0--0--0--0--0--|--0--0--0--0--0--0--0--3--|
 --------------------------|-------------------------|--------------------------|
 -----3--3-----3--3--3-----|-------------------------|--------------------------|

[G7sus4] [Gm7] [Dm7] [D7sus4]  
 
 -------------------------|--------------------------|-------------------------|
 -------------------------|-----------------------6--|----8--------------------|
 ----5--------------------|--3--------3-----------5--|----5--------------------|
 ----3--------------------|--3--------3-----------0--|----0--0--0--0--0--0--0--|
 -------------------------|--------------------------|-------------------------|
 -------3--3--3--3--3--3--|-----3--3-----3--3--3-----|-------------------------|

[Dm7] [D#5]  
 
 ---------------------------|--------------------------|
 --6--------6---------------|--------------------------|
 --5--------5---------------|--8--------8--------------|
 --0--0--0--0--0--0--0--12--|--8--------8--------------|
 ---------------------------|--6--6--6--6--6--6--6--6--|
 ---------------------------|--------------------------|

[Eb6] [D#5] [D#5]  
 
 ---------------------------|--------------------------|
 ---------------------------|--------------------------|
 ------------8--------------|--8--------8--------------|
 --10--------8--------------|--8--------8--------------|
 --6---6--6--6--6--6--6--6--|--6--6--6--6--6--6--6--6--|
 ---------------------------|--------------------------|

[F5]  
 
 --------------------------|----------------------------|
 --------------------------|----------------------------|
 --8--------8--------------|--10--------10--------------|
 --8--------8--------------|--10--------10--------------|
 --6--6--6--6--6--6--6--6--|--8---8--8--8---8--8--8--8--|
 --------------------------|----------------------------|
 ----------------------------|----------------------------|
 ----------------------------|----------------------------|
 --10--------10--------------|--10--------10--------------|
 --10--------10--------------|--10--------10--------------|
 --8---8--8--8---8--8--8--8--|--8---8--8--8---8--8--8--8--|
 ----------------------------|----------------------------|

[D#5]  
 
 ----------------------------|--------------------------|
 ----------------------------|--------------------------|
 --10--------10--------------|--8--------8--------------|
 --10--------10--------------|--8--------8--------------|
 --8---8--8--8---8--8--8--8--|--6--6--6--6--6--6--6--6--|
 ----------------------------|--------------------------|

[Eb6] [D#5] [D#5]  
 
 ---------------------------|--------------------------|
 ---------------------------|--------------------------|
 ------------8--------------|--8--------8--------------|
 --10--------8--------------|--8--------8--------------|
 --6---6--6--6--6--6--6--6--|--6--6--6--6--6--6--6--6--|
 ---------------------------|--------------------------|

[F5]  
 
 --------------------------|----------------------------|
 --------------------------|----------------------------|
 --8--------8--------------|--10--------10--------------|
 --8--------8--------------|--10--------10--------------|
 --6--6--6--6--6--6--6--6--|--8---8--8--8---8--8--8--8--|
 --------------------------|----------------------------|
 ----------------------------|----------------------------|
 ----------------------------|----------------------------|
 --10--------10--------------|--10--------10--------------|
 --10--------10--------------|--10--------10--------------|
 --8---8--8--8---8--8--8--8--|--8---8--8--8---8--8--8--8--|
 ----------------------------|----------------------------|

[C5]  
 
 ----------------------------|--------------------------|
 ----------------------------|--------------------------|
 --10-----------10-----------|--5--------5--------------|
 --10-----------10-----------|--5--------5--------------|
 --8---8--8--8--8---8--8--8--|--3--3--3--3--3--3--3--3--|
 ----------------------------|--------------------------|

[C(b5)]  
 
 --------------------------|--------------------------|
 --------------------------|--------------------------|
 --5--------5--------------|--5--------5--------------|
 --5--------5--------------|--4--------4--------------|
 --3--3--3--3--3--3--3--3--|--3--3--3--3--3--3--3--3--|
 --------------------------|--------------------------|

[C(b5)] [C5]  
 
 --------------------------|--------------------------|
 --------------------------|--------------------------|
 --5--------5--------------|--5--------5--------------|
 --4--------4--------------|--5--------5--------------|
 --3--3--3--3--3--3--3--3--|--3--3--3--3--3--3--3--3--|
 --------------------------|--------------------------|

[C(b5)]  
 
 --------------------------|--------------------------|
 --------------------------|--------------------------|
 --5--------5--------------|--5--------5--------------|
 --5--------5--------------|--4--------4--------------|
 --3--3--3--3--3--3--3--3--|--3--3--3--3--3--3--3--3--|
 --------------------------|--------------------------|

[C5]  
 
 --------------------------|--------------------------|
 --------------------------|--------------------------|
 --5-----------------------|--5--------5--------------|
 --4-----------------------|--5--------5--------------|
 --3--------------0--1--2--|--3--3--3--3--3--3--3--3--|
 -----0--1--2--3-----------|--------------------------|

[D5]  
 
 --------------------------|--------------------------|
 --------------------------|--------------------------|
 --5--------5--------------|--7--------7--------------|
 --5--------5--------------|--7--------7--------------|
 --3--3--3--3--3--3--3--3--|--5--5--5--5--5--5--5--5--|
 --------------------------|--------------------------|

[A5] [C5]  
 
 --------------------------|--------------------------|
 --------------------------|--------------------------|
 --7--------7-----------2--|--5--------5--------------|
 --7--------7-----------2--|--5--------5--------------|
 --5--5--5--5--5--5--5--0--|--3--3--3--3--3--3--3--3--|
 --------------------------|--------------------------|

[D5]  
 
 --------------------------|--------------------------|
 --------------------------|--------------------------|
 --5--------5--------------|--7--------7--------------|
 --5--------5--------------|--7--------7--------------|
 --3--3--3--3--3--3--3--3--|--5--5--5--5--5--5--5--5--|
 --------------------------|--------------------------|

[A5] [C5]  
 
 --------------------------|--------------------------|
 --------------------------|--------------------------|
 --7--------7-----------2--|--5--------5--------------|
 --7--------7-----------2--|--5--------5--------------|
 --5--5--5--5--5--5--5--0--|--3--3--3--3--3--3--3--3--|
 --------------------------|--------------------------|

[D5]  
 
 --------------------------|--------------------------|
 --------------------------|--------------------------|
 --5--------5--------------|--7--------7--------------|
 --5--------5--------------|--7--------7--------------|
 --3--3--3--3--3--3--3--3--|--5--5--5--5--5--5--5--5--|
 --------------------------|--------------------------|

[A5] [Gm]  
 
 --------------------------|------------------------------|
 --------------------------|--11----------11----11--------|
 --7--------7-----------2--|--12----------12----12--------|
 --7--------7-----------2--|--12----------12----12--------|
 --5--5--5--5--5--5--5--0--|--10--10--10--10----10--x--6--|
 --------------------------|------------------------------|

[Eb] [F]  
 
 -------------------------|----------------------------|
 --8--------8----8--------|--10--------10----10--------|
 --8--------8----8--------|--10--------10----10--------|
 --8--------8----8--------|--10--------10----10--------|
 --6--6--6--6----6--x--8--|--8---8--8--8-----8---x--8--|
 -------------------------|----------------------------|

[Gm]  
 
 -----------------------------|------------------------------|
 --10--------10----10---------|--11----------11----11--------|
 --10--------10----10---------|--12----------12----12--------|
 --10--------10----10---------|--12----------12----12--------|
 --8---8--8--8-----8---x--10--|--10--10--10--10----10--x--6--|
 -----------------------------|------------------------------|

[Eb] [F]  
 
 -------------------------|----------------------------|
 --8--------8----8--------|--10--------10----10--------|
 --8--------8----8--------|--10--------10----10--------|
 --8--------8----8--------|--10--------10----10--------|
 --6--6--6--6----6--x--8--|--8---8--8--8-----8---x--8--|
 -------------------------|----------------------------|

[Em]  
 
 -----------------------------||--------------------------|
 --10--------10----10---------||---8--------8----8--------|
 --10--------10----10---------||*--9--------9----9--------|
 --10--------10----10---------||*--9--------9----9--------|
 --8---8--8--8-----8---x--10--||---7--7--7--7----7--x--3--|
 -----------------------------||--------------------------|

[C] [D] [Dsus4] [D] [Dsus2] [D] [E]  
 
 --3--------3----3--------|-------------------------|-------------------------|
 --5--------5----5--7-----|--8--------7----7--------|--5--------7----7--------|
 --5--------5----5--7-----|--7--------7----7--------|--7--------7----7--------|
 --5--------5----5--7-----|--7--------7----7--------|--7--------7----7--------|
 --3--3--3--3----3--5--5--|--5--5--5--5----5--5--5--|--5--5--5--5----5--x--7--|
 -------------------------|-------------------------|-------------------------|

[Em] [C] [D] [Dsus4] [D]  
 
 -------------------------|--3--------3----3--------|-------------------------|
 --8--------8----8--------|--5--------5----5--7-----|--8--------7----7--------|
 --9--------9----9--------|--5--------5----5--7-----|--7--------7----7--------|
 --9--------9----9--------|--5--------5----5--7-----|--7--------7----7--------|
 --7--7--7--7----7--x--3--|--3--3--3--3----3--5--5--|--5--5--5--5----5--5--5--|
 -------------------------|-------------------------|-------------------------|

[Dsus2] [D] [E]  
 
 --------------------------||
 --5--------7----7---------||
 --7--------7----7--------*||
 --7--------7----7--------*||
 --5--5--5--5----5--x--x---||
 --------------------------||

Guitar 2
 
 E||--------------------||--------------------||--------------------||
 B||--------------------||--------------------||--------------------||
 G||*------------------*||*------------------*||*------------------*||
 D||*------------------*||*------------------*||*------------------*||
 A||--------------------||--------------------||--------------------||
 E||--------------------||--------------------||--------------------||
 ------------------|------------------|--------------------|
 ------------------|------------------|--------------------|
 ------------------|------------------|----------12--------|
 ------------------|------------------|--------------------|
 ------------------|------------------|--------------------|
 ------------------|------------------|--------------------|
 ----------------------|--------------------|--------------------|
 --13--------16--------|--------------------|--------------------|
 ----------------------|--14~---------------|----------------14-|
 ----------------------|--------------------|--------------------|
 ----------------------|--------------------|--------------------|
 ----------------------|--------------------|--------------------|
 --------------------|----------------------|----------------------|
 --------------------|--13--------16--------|----------------------|
 ----------12--------|----------------------|--14~-----------12----|
 --------------------|----------------------|----------------------|
 --------------------|----------------------|----------------------|
 --------------------|----------------------|----------------------|
 --------------------|---------------------|----------------------|
 --------------------|---------------------|--13--------16--------|
 --11----------------|--7--------12--------|----------------------|
 --------------------|---------------------|----------------------|
 --------------------|---------------------|----------------------|
 --------------------|---------------------|----------------------|
 --------------------|--------------------------|--------------------15----|
 --------------------|--------------------15----|----------13/15-----------|
 --14~---------------|--14----15----17----------|--------------------------|
 --------------------|--------------------------|--17----------------------|
 --------------------|--------------------------|--------------------------|
 --------------------|--------------------------|--------------------------|
 ------------------------|----------------------|----------------------------|
 --18------16------15----|----------------------|--------------------15------|
 ------------------------|--17r-----17~---------|--------14--15--17----------|
 ------------------------|----------------------|------------------------17--|
 ------------------------|----------------------|----------------------------|
 ------------------------|----------------------|----------------------------|
 ------------------17r---|--17------15------------|------------------------|
 --------13/15-----18r---|--18------16------18----|--16r-16----16----------|
 ------------------------|------------------19----|--17r-17----17----------|
 ------------------------|------------------------|------------------------|
 ------------------------|------------------------|------------------------|
 ------------------------|------------------------|------------------------|
 ------------------||--------------------||------------------|------------------|
 ------------------||--------------------||------------------|------------------|
 ------------------||*------------------*||------------------|------------------|
 ------------------||*------------------*||------------------|------------------|
 ------------------||--------------------||------------------|------------------|
 ------------------||--------------------||------------------|------------------|
 ------------------|------------------|------------------|------------------|
 ------------------|------------------|------------------|------------------|
 ------------------|------------------|------------------|------------------|
 ------------------|------------------|------------------|------------------|
 ------------------|------------------|------------------|------------------|
 ------------------|------------------|------------------|------------------|
 --------------------|----------------------|--------------------|
 --------------------|--13--------16--------|--------------------|
 ----------12~-------|----------------------|--14----------------|
 --------------------|----------------------|--------------------|
 --------------------|----------------------|--------------------|
 --------------------|----------------------|--------------------|
 --------------------|--------------------|----------------------|
 --------------------|--------------------|--13--------16--------|
 --14---------------|----------12--------|----------------------|
 --------------------|--------------------|----------------------|
 --------------------|--------------------|----------------------|
 --------------------|--------------------|----------------------|
 ------------------------|-----------------------------------|
 ------------------------|-----------------------------------|
 --14~-------14----12----|--11p---0h---11p---0h---11p---0----|
 ------------------------|-----------------------------------|
 ------------------------|-----------------------------------|
 ------------------------|-----------------------------------|
 --------------------|----------------------|--------------------|
 --------------------|--13--------16--------|--------------------|
 ----------12--------|----------------------|--14~---------------|
 --------------------|----------------------|--------------------|
 --------------------|----------------------|--------------------|
 --------------------|----------------------|--------------------|
 --------------------------------|--------------------15----|
 --------------------------------|----------13/15-----------|
 --14----14h---15h---17/---19----|--------------------------|
 --------------------------------|--17----------------------|
 --------------------------------|--------------------------|
 --------------------------------|--------------------------|
 ------------------------|----------------------|----------------------------|
 --18------16------15----|----------------------|--------------------15------|
 ------------------------|--17r-----17~---------|--------14--15--17----------|
 ------------------------|----------------------|------------------------17--|
 ------------------------|----------------------|----------------------------|
 ------------------------|----------------------|----------------------------|
 ------------------17r---|--17------15------------|----------------------|
 --------13/15-----18r---|--18------16------18----|--16r-----16----------|
 ------------------------|------------------19----|--17r-----17----------|
 ------------------------|------------------------|----------------------|
 ------------------------|------------------------|----------------------|
 ------------------------|------------------------|----------------------|
 ------------------|----------19------22r---|--22------20------19----|
 ------------------|--17--------------------|------------------------|
 ------------------|------------------7r----|--7---------------------|
 ------------------|----------9-------------|----------10------9-----|
 ------------------|--7---------------------|------------------------|
 ------------------|------------------------|------------------------|
 --19-17----17----------|----------------------|----------19------22b---|
 ------------------------|--19b-------19~-------|--17--------------------|
 ------------------------|----------------------|------------------9-----|
 --9--7-----7-----------|----------------------|----------9-------------|
 ------------------------|--9b--------9~--------|--7---------------------|
 ------------------------|----------------------|------------------------|
 --22------20------19----|--19-17----17~---------|------------15--17--15--|
 ------------------------|------------------------|------------------------|
 --7---------------------|------------------------|------------------------|
 ----------10------9-----|--9--7-----7~----------|------------5---7---5---|
 ------------------------|------------------------|------------------------|
 ------------------------|------------------------|------------------------|
 --17b-----17b-----17b---|--17------15------------|------------------------|
 ------------------------|------------------18----|--18-16----16----------|
 ------------------------|------------------------|------------------------|
 --7b------7b------7b----|--7-------5-------------|------------------------|
 ------------------------|------------------8-----|--8--6-----6-----------|
 ------------------------|------------------------|------------------------|
 ------------------|------------------|------------------|------------------|
 ------------------|------------------|------------------|------------------|
 ------------------|------------------|------------------|------------------|
 ------------------|------------------|------------------|------------------|
 ------------------|------------------|------------------|------------------|
 ------------------|------------------|------------------|------------------|
 ------------------|------------------|------------------|------------------|
 ------------------|------------------|------------------|------------------|
 ------------------|------------------|------------------|------------------|
 ------------------|------------------|------------------|------------------|
 ------------------|------------------|------------------|------------------|
 ------------------|------------------|------------------|------------------|
 ------------------|----------------------------------|
 ------------------|----------------------------------|
 ------------------|--------0-3p0-5p0-3p0-------------|
 ------------------|--0h5-5---------------5p0-3h5-0h3h|
 ------------------|----------------------------------|
 ------------------|----------------------------------|
 ------------------8r-------|----------------------------------|
 ---------------------------|----------------------------------|
 ----0-3p0-5p0-3p0----------|--------0-3p0-5p0-3p0-------------|
 --5------------------------|--0h3h5---------------5p0-3h5-0h3h|
 ---------------------------|----------------------------------|
 ---------------------------|----------------------------------|
 -------------------------|----------------------------------|
 ---------3h6--6-8~-------|----------------------------------|
 ----0h5------------------|--------0-3p0-5p0-3p0-------------|
 --5----------------------|--0h3h5---------------5p0-3h5-0h3h|
 -------------------------|----------------------------------|
 -------------------------|----------------------------------|
 -------------------------------|----------------------------------|
 -------------------------------|----------------------------------|
 ----0-3p0-5p0---0-3p0----3r-3--|--------0-3p0-5p0-3p0---0-3p0-5p0-|
 --5-----------2-------2--------|--0h3h5---------------3p----------|
 -------------------------------|----------------------------------|
 -------------------------------|----------------------------------|
 --------------------|--------------------------------------------------|
 --------------------|--------------------------------------------------|
 --0----5------------|-----------12-15p12-17p12-15p12----12-------------|
 --------------------|--12h15h17----------------------17----15h17-12h15h|
 --------------------|--------------------------------------------------|
 --------------------|--------------------------------------------------|
 ----------------------------------|
 ----------------------------------|
 -----12-15p12-17p12-15p12---------|
 --17------------------------------|
 ----------------------------------|
 ----------------------------------|
 --------------------------------------------------|
 --------------------------------------------------|
 -----------12-15p12-17p12-15p12-------------------|
 --12h15h17----------------------17p12-15h17-12h15h|
 --------------------------------------------------|
 --------------------------------------------------|
 --------------------------15~-------|
 --------------14/15h18-18-----------|
 -----12-15h17-----------------------|
 --17--------------------------------|
 ------------------------------------|
 ------------------------------------|
 --------------------------------------------------|
 --------------------------------------------------|
 --12----------15p12-17p12-15p12-------------------|
 -----15-16-17-------------------17p12-15h17-12h15h|
 --------------------------------------------------|
 --------------------------------------------------|
 ----------------------------------------------|
 ----------------------------------------------|
 -----12-15p12-17p12-------15p12-------15r-15~-|
 --17----------------14p12-------14p12---------|
 ----------------------------------------------|
 ----------------------------------------------|
 ------------------------------------------------|------------------------|
 --------------------17----------------15----17--|------------------------|
 -----------12-15p12-17p12-15p12-------15p12-17p-|--12----12--------12---|
 --12h15h17----------------------15p12-----------|------------------------|
 ------------------------------------------------|------------------------|
 ------------------------------------------------|------------------------|
 |-------------------|------------------|------------------|-------------------||
 |-------------------|------------------|------------------|-------------------||
 |*------------------|------------------|------------------|------------------*||
 |*------------------|------------------|------------------|------------------*||
 |-------------------|------------------|------------------|-------------------||
 |-------------------|------------------|------------------|-------------------||
 -----------------------|-----------------------|-----------------------|
 -----------------------|-----------------------|-----------------------|
 ----5------------------|-----------------------|-----------------------|
 -------5-----3b-5------|-------5-----3b-5------|-------3b----3b-3b-----|
 ----------5------------|----5-----5------------|----5-----5------------|
 -----------------------|-----------------------|-----------------------|
 -----------------------|-----------------------|-----------------------|
 -----------------------|-----------------------|-----------------------|
 -----------------------|-----------------------|-----------------------|
 -------3b----3--3------|-------5-----3b-5------|-------5-----3b-5------|
 ----5-----5------------|----5-----5------------|----5-----5------------|
 -----------------------|-----------------------|-----------------------|
 -------------------------|-----------------------|
 -------------------------|-----------------------|
 -------------------------|--------------------x--|
 -------3b----3--3--3b----|--3b----3b-3--------x--|
 ----5-----5-----------5--|-----0-----------------|
 -------------------------|-----------------------|
 -----------------10-15p108-------8-13p8--------10-15p10-------|
 --15----------12---------------10------------12----------------|
 -----12----12---------------12------------14-------------0h2/3h|
 --------14-----------------------------------------------0h2/3h|
 ---------------------------------------------------------------|
 ---------------------------------------------------------------|
 -----------15p108-------8-13p8-------10-15p10--|
 ---------x------------10-----------12-----------|
 --5p3p0------------12-----------14--------------|
 --5p3p0-----------------------------------------|
 ------------------------------------------------|
 ------------------------------------------------|
 --20p17-------------------------------------------|
 --------18----------------------------------------|
 -----------19-17p14----------------------------12h|
 --------------------15p12-------------12h14h15----|
 --------------------------13p12-13h15-------------|
 --------------------------------------------------|
 -----------------13-17p13-15~---------|
 --------13h15h17------------------0---|
 --14h15-----------------------------0-|
 --------------------------------------|
 --------------------------------------|
 --------------------------------------|
 --------------10-15p108-------8-13p8----------10-15p10------|
 -----------12---------------10--------10----10----------------|
 --0-----12---------------10--------------12-------------0h2/3h|
 -----14-------------------------------------------------0h2/3h|
 --------------------------------------------------------------|
 --------------------------------------------------------------|
 ------------15p108-------8-13p8----------10-15p10---|
 ----------x------------10--------10----10------------|
 --5p3p0-x-----------12--------------12---------------|
 --5p3p0----------------------------------------------|
 -----------------------------------------------------|
 -----------------------------------------------------|
 --20p17-------------------------------------------|
 --------18----------------------------------------|
 -----------19-17p14----------------------------12h|
 --------------------15p12-------------12h14h15----|
 --------------------------13p12-13h15-------------|
 --------------------------------------------------|
 -----------------13-17p13/20~-------|
 --------13h15h17--------------------|
 --14h15-----------------------------|
 ------------------------------------|
 ------------------------------------|
 ------------------------------------|
 --22p15-22p15-15-21p15-15-20p15-20p15-15-21p15-15-|
 --------------------------------------------------|
 --------------------------------------------------|
 --------------------------------------------------|
 --------------------------------------------------|
 --------------------------------------------------|
 --22p15-22p15-15-21p15-15-20p15-20p15-15-21p15-15

Important: The song above is NOT stored on the Chordie server. The original song is hosted at www.xguitar.com. Chordie works as a search engine and provides on-the-fly formatting. Chordie does not index songs against artists'/composers' will. To remove this song please click here.

Text color:
Chord color:
Chord grids: 
Font size:    
Page size: 

A5 C C5 D D#5 D5 D7sus4 Dm7 Dsus2 Dsus4 E Eb Eb6 Em F F5 G5 G7sus4 Gm Gm7
Rate #3 of 3 versions

Jango Player

Login - add to songbook

SHARE PAGE  



You need to log in to post comments