Guitar Tabs, Chords and Lyrics
Server problems seems to be fixed. Chordie has been experiencing problems with songs disappearing. These issues now seems to be fixed, but still verifying the fix. If you find anything strange, please email admin@chordie.com.


Ice 9  Joe Satriani

by Joe Satriani
tabbed by : bighabit69@iamwasted.com
damn this is a long tab...i tried to get as close as i could with the solos
enjoy
x 6 [Eb5]8 x x x x 4 [Db5]6 x x x x x[B5/D#] 1 4 x x x x [E5]2 4 x x
x 2 [B5]4 x x x x x [F#]4 3 x x x 4 [C#5]6 6 x x
Intro
[E5F#] [C#5] [E5F#] 
Gtr I
 
 PM PM-----------------------------|
 |-----------|-------------------------|--------------------|
 |-----------|-------------------------|--------------------|
 |-------4-3-|-(3)---------------------|----------------4-3-|
 |-------2-4-|-(4)-6-6-----------------|----------------2-4-|
 |-----------|-----4-4-4-4-4-4-4-4---4-|------4-4-4-4-4-----|
 |-----------|---------------------7---|--(7)---------------|

[C#5] [E5F#]  
 
 PM PM--------------------------------|
 |-------------------------|-----------------------|
 |-------------------------|-----------------------|
 |-(3)---------------------|-------------------4-3-|
 |-(4)-6-6-----------------|-------------------2-4-|
 |-----4-4-4-4-4-4-4-4---4-|---------4-4-4-4-4-----|
 |---------------------7---|-----(7)---------------|

|
| Gtr II
 
 |-----------------0-----0-|-(0)-------------------|
 |-----------------7-----7-|-(7)-------------------|
 |-----------------9-----9-|-(9)-------------------|
 |-------------------------|-----------------------|
 |-------------------------|-----------------------|
 |-------------------------|-----------------------|

[E5F#]  
 
 PM PM-----------------------------|
 |-------------------------|----------------------|
 |-------------------------|----------------------|
 |-(3)---------------------|----------------4-3---|
 |-(4)-6-6-----------------|----------------2-4---|
 |-----4-4-4-4-4-4-4-4---4-|------4-4-4-4-4-------|
 |---------------------7---|--(7)-----------------|

|
 
 |-------------------------|----------------------|
 |-------------------------|----------------------|
 |-------------------------|----------------------|
 |-------------------------|----------------------|
 |-------------------------|----------------------|
 |-------------------------|----------------------|

[C#5] [E5F#]  
 
 PM PM--------------------------------|
 |-------------------------|-----------------------|
 |-------------------------|-----------------------|
 |-(3)---------------------|-------------------4-3-|
 |-(4)-6-6-----------------|-------------------2-4-|
 |-----4-4-4-4-4-4-4-4---4-|---------4-4-4-4-4-----|
 |---------------------7---|-----(7)---------------|

|
 
 |-----------------0-----0-|-(0)-------------------|
 |-----------------7-----7-|-(7)-------------------|
 |-----------------9-----9-|-(9)-------------------|
 |-------------------------|-----------------------|
 |-------------------------|-----------------------|
 |-------------------------|-----------------------|

Gtr I[C#5] [E5] [F#]
 
 PM PM------------------------------------------------|
 |---------------------------------------|----------------------------------------|
 |---------------------------------------|----------------------------------------|
 |-(3)-----------------------------------|-------------------------4------------3-|
 |-(4)-6-6-------------------------------|-------------------------2------------4-|
 |-----4-4----4-4-4-4--4-----4--------4--|-----------4-4--4--4--4-----------------|
 |-------------------------------7-------|------(7)-------------------------------|

|
| Gtr II
 
 |---------------------------------------|----------------------------------------|
 |---------------------------------------|----------------------------------------|
 |---------------------------------------|----------------------------------------|
 |---------------------------------------|----------------------------------------|
 |---------------------------------------|----------------------------------------|
 |---------------------------------------|----------------------------------------|

|
| Gtr III
| ~~~~~~ ~~~~~~~~~~~
 
 |---------------------------------------|----------------------------------------|
 |---------------------------------------|------------------------11b12==(11)r-11-|
 |---------x------9---11b13====(11)r(11)-|-(11)p=9----------[9]---11b12==(11)r-11-|
 |-----------11--------------------------|----------11---11-----------------------|
 |---------------------------------------|----------------------------------------|
 |---------------------------------------|----------------------------------------|

[C#5] [E5F#]  
 
 PM PM------------------------------------|
 |-------------------------------|-----------------------|
 |-------------------------------|-----------------------|
 |--(3)--------------------------|-------------------4-3-|
 |--(4)-6--6---------------------|-------------------2-4-|
 |------4--4-4-4---4---4-4-4---4-|---------4-4-4-4-4-----|
 |---------------------------7---|-----(7)---------------|

|
 
 |-----------------------0-----0-|-(0)-------------------|
 |-----------------------7-----7-|-(7)-------------------|
 |-----------------------9-----9-|-(9)-------------------|
 |-------------------------------|-----------------------|
 |-------------------------------|-----------------------|
 |-------------------------------|-----------------------|

|
| ~~
 
 |-------------------------------|-----------------------|
 |-(11)-9------------------------|-----------------------|
 |-(11)-9------------------------|-----------------------|
 |--------11-----(11)\-----------|-----------------------|
 |-------------------------------|-----------------------|
 |-------------------------------|-----------------------|

[C#5] [E5] [F#]  
 
 PM PM------------------------------------------|
 |----------------------------------|-------------------------------------|
 |----------------------------------|-------------------------------------|
 |-(3)------------------------------|----------------------4------------3-|
 |-(4)-6-6--------------------------|----------------------2------------4-|
 |-----4-4--4-4-4-4--4----4-------4-|-----------4-4-4-4-4-----------------|
 |----------------------------7-----|------(7)----------------------------|

|
 
 |----------------------------------|-------------------------------------|
 |----------------------------------|-------------------------------------|
 |----------------------------------|-------------------------------------|
 |----------------------------------|-------------------------------------|
 |----------------------------------|-------------------------------------|
 |----------------------------------|-------------------------------------|

|
| ~~~~~~ ~~~~~~~~
 
 |----------------------------------|-------------------------------------|
 |----------------------------------|---------------------11b12==(11)r-11-|
 |--------------9---11b13---(11)-11-|-(11)p=9---------9---11b12==(11)r-11-|
 |---------11-----------------------|----------11-------------------------|
 |----------------------------------|-------------------------------------|
 |----------------------------------|-------------------------------------|

[C#5] [E5F#]  
 
 PM PM------------------------------------|
 |-------------------------------|------------------------|
 |-------------------------------|------------------------|
 |--(3)--------------------------|-------------------4-3--|
 |--(4)-6--6---------------------|-------------------2-4--|
 |------4--4-4-4---4---4-4-4---4-|---------4-4-4-4-4------|
 |---------------------------7---|-----(7)----------------|

|
 
 |-----------------------0-----0-|-(0)--------------------|
 |-----------------------7-----7-|-(7)--------------------|
 |-----------------------9-----9-|-(9)--------------------|
 |-------------------------------|------------------------|
 |-------------------------------|------------------------|
 |-------------------------------|------------------------|

|
| ~~
 
 |-------------------------------|------------------------|
 |-(11)-9------------------------|------------------------|
 |-(11)-9------------------------|------------------------|
 |--------11-----(11)\-----------|------------------------|
 |-------------------------------|------------------------|
 |-------------------------------|------------------------|

[C#5] [E5F#]  
 
 PM PM-------------------------------------------|
 |-------------------------------------|------------------------|
 |-------------------------------------|------------------------|
 |-(3)---------------------------------|--------------------4-3-|
 |-(4)-6---6---------------------------|--------------------2-4-|
 |-----4---4-4-4---4----4---4--4-----4-|------4-4-4----4--4-----|
 |--------------------------------7----|--(7)-------------------|

|
 
 |--------------------------9--9--9--9-|--------0---0-(0)-------|
 |-------------------------12-12-12-12-|--------7---7-(7)-------|
 |--------------------------9--9--9--9-|--------9---9-(9)-------|
 |-------------------------11-11-11-11-|------------------------|
 |-------------------------------------|------------------------|
 |-------------------------------------|------------------------|

|
 
 |-------------------------------------|------------------------|
 |-------------------------------------|------------------------|
 |-------------------------------------|------------------------|
 |-----------2-4p2-4b6-(4)-------------|------------------------|
 |-------x-4---------------------------|------------------------|
 |-------------------------------------|------------------------|

[C#5] [E5F#]  
 
 PM PM-------------------------------------------|
 |-------------------------------------|------------------------|
 |-------------------------------------|------------------------|
 |-(3)---------------------------------|--------------------4-3-|
 |-(4)-6---6---------------------------|--------------------2-4-|
 |-----4---4-4-4----4--4--4----4-----4-|------4-4-4----4--4-----|
 |--------------------------------7----|--(7)-------------------|

|
 
 |------------------------9----9--9--9-|--------0---0-(0)-------|
 |-----------------------12---12-12-12-|--------7---7-(7)-------|
 |------------------------9----9--9--9-|--------9---9-(9)-------|
 |-----------------------11---11-11-11-|------------------------|
 |-------------------------------------|------------------------|
 |-------------------------------------|------------------------|

|
| ~~~
 
 |-------------------------------------|------------------------|
 |-------------------------------------|------------------------|
 |-------------------------------------|------------------------|
 |-----------2-4p2---------------------|------------------------|
 |-------x-4-------[4]---(4)\----------|------------------------|
 |-------------------------------------|------------------------|
 PM PM---------------------------------------------|
 |---------------------------------------|------------------------|
 |---------------------------------------|------------------------|
 |-(3)-----------------------------------|--------------------4-3-|
 |-(4)-6---6-----------------------------|--------------------2-4-|
 |-----4---4-4-4----4-----4---4--4-----4-|------4-4-4----4--4-----|
 |----------------------------------7----|--(7)-------------------|

|
 
 |----------------------------9--9--9--9-|--------0---0-(0)-------|
 |---------------------------12-12-12-12-|--------7---7-(7)-------|
 |----------------------------9--9--9--9-|--------9---9-(9)-------|
 |---------------------------11-11-11-11-|------------------------|
 |---------------------------------------|------------------------|
 |---------------------------------------|------------------------|

|
 
 |---------------------------------------|------------------------|
 |---------------------------------------|------------------------|
 |---------------------------------------|------------------------|
 |-----------2-4p2-[4]b7-(4)-------------|------------------------|
 |-------x-4-----------------------------|------------------------|
 |---------------------------------------|------------------------|
 PM PM-------------------| PM-----|
 |-----------------------------------|------------------------------------|
 |-----------------------------------|------------------------------------|
 |-(3)-------------------------------|---------------6--4-----------------|
 |-(4)-6---6-------------------------|--------------------6-5-4-----------|
 |-----4---4-4-4---4-4--4----4-----4-|------4-4-4---------------7b7.5-4---|
 |------------------------------7----|--(7)-----------------------------7-|

|
 
 |----------------------9----9--9--9-|--------0---0-(0)-------------------|
 |---------------------12---12-12-12-|--------7---7-(7)-------------------|
 |----------------------9----9--9--9-|--------9---9-(9)-------------------|
 |---------------------11---11-11-11-|------------------------------------|
 |-----------------------------------|------------------------------------|
 |-----------------------------------|------------------------------------|

|
| ~
 
 |-----------------------------------|------------------------------------|
 |-----------------------------------|------------------------------------|
 |-----------------------------------|------------------------------------|
 |-----------2-4p2-------------------|------------------------------------|
 |-------x-4-------4---(4)\----------|------------------------------------|
 |-----------------------------------|------------------------------------|

[F#5] [C#5] [A5]  
 
 PM--------------------------------------------------------------|
 |---------------------------|---------------------------------------|
 |---------------------------|---------------------------------------|
 |---------------------------|-----------------------------6---6-----|
 |------6-----------6--------|-------------------4---------6-6-6-----|
 |------6-----6-----6------4-|--4--------4-------4-4-------4-4-4---7-|
 |-4-4----4---4--4-------0-2-|--2------0-2-----------------------5-5-|

|
| ~~ ~~
 
 |---------------------------|---------------------------------------|
 |----------[12]---14b16-----|-14b14.5-----(14)-12---(12)------------|
 |-----13-----4-----6b8------|--6b6.5-------(6)--4----(4)-13---------|
 |------6--------------------|-----------------------------6---------|
 |------------2-----4b6------|--4b4.5-------(4)--2----(2)------------|
 |------4--------------------|-----------------------------4---------|

[D#5] [A5]  
 
 PM-------------------------------------------------|
 |--------------------------|-----------------------------|
 |--------------------------|-----------------------------|
 |--------------------------|--------8--------8----8------|
 |-------7----7----7------8-|----8---8--------8----8------|
 |----7--7----7----7------6-|--6---6-----6-------6---0-7--|
 |--x-5--5-7----5--5----0---|--------------------------5--|

|
| ~~~~~~~ ~~~~~~~~
 
 |-----------12---14b16-----|-15-------(15)-(15)----------|
 |------14----5----7b9------|--8--------(8)--(8)----------|
 |-------6------------------|-----------------------------|
 |------------2----4b6------|--5--------(5)--(5)----------|
 |-------4------------------|-----------------------------|
 |--------------------------|-----------------------------|

[F#5] [C#5] [E5]  
 
 PM--------------------------------------------------------------
 |-----------------------------|----------------------------------|
 |-----------------------------|----------------------------------|
 |-----------------------------|---------6--------------6---6-----|
 |----------7----7----7--------|---------6--------------6---6---2-|
 |-7-7--7---7----7----7------4-|------4---------4---------4-----2-|
 |-5----5-----5----5-------0-2-|--2-0-2-----------------------0---|

|
| ~~~~~~~ ~~ ~~
 
 |--------------12---14b16-----|-14-----12b12.5---(12)------------|
 |---------14----5----7b9------|--7------5b5.5-----(5)-14---------|
 |----------6------------------|------------------------6---------|
 |-----14\-------2----4b6------|--4------2b2.5-----(2)------------|
 |----------4------------------|------------------------4---------|
 |-----------------------------|----------------------------------|

[G#5]  
 
 ------------------------------------------|
 |------------------------|---------------------------------|
 |------------------------|---------------------------------|
 |------------------------|---------------------------4-3---|
 |--------2----2----2-----|--------6-----6------6-----2-4---|
 |-2-2-2--2----2----2---6-|----------6---6------6-----------|
 |-0-0-0----0----0----0-4-|--4-------4------4---4-----------|

|
| ~~~~~~~~~~~~ ~~~~
 
 |-----------------16-----|-18b20======(18)---(18)r\--------|
 |------------17----9-----|-11b13======(11)---[11]r\--------|
 |-------16----9----1-----|--3b5========(3)----(3)r\--------|
 |--------9----2----------|---------------------------------|
 |--------2---------------|---------------------------------|
 |------------------------|---------------------------------|
 PM PM---------------------------------------------|
 |-----------------------------------|-------------------------------------|
 |-----------------------------------|-------------------------------------|
 |-(3)-------------------------------|------------------------4----------3-|
 |-(4)-6-6---------------------------|------------------------2----------4-|
 |-----4-4--4-4--4-4--4----4-------4-|-----------4-4--4--4-4---------------|
 |-----------------------------7-----|------(7)----------------------------|

|
| ~~~~~~~ ~~ ~~~~~~~~~~
 
 |--------------12---14b16---(14)-14-|-(14)p12----------12---14b16-(14)-14-|
 |---------14------------------------|----------14---14--------------------|
 |---------------9---11b13---(11)-11-|-(11)p=9-----------9---11b13-(11)-11-|
 |---------11----2----4b6-----(4)--4-|--(4)p=2--11---11--2----4b6---(4)--4-|
 |----------4------------------------|-----------4----4--------------------|
 |-----------------------------------|-------------------------------------|

Gtr II[GAb]I
||
oo
PM
 
 |-------------------------|----------||
 |-------------------------|----------||
 |---3---------------------|----------||
 |---4---6--6-6\-----------|----------||
 |-------4--4-4\-----------|----------||
 |-------------------------|----------||

|
| ~~
 
 |-(14)-12-----------------|----------||
 |---------14-----(14)\----|----------||
 |-(11)--9-----------------|----------||
 |--(4)--2-11-----(11)\----|----------||
 |----------4------(4)\----|----------||
 |-------------------------|----------||

Guitar Solo I
|[GEb]|| [Eb5] | | | | | | [Db5] | [Eb5] |
/oo / / / / / / / /
~~
 
 |--------------------------------------------------|
 |----11s14--(14)-\14p10h11h14-(14)p=11p10h14p10h11h|
 |--------------------------------------------------|
 |--------------------------------------------------|
 |--------------------------------------------------|
 |--------------------------------------------------|

| | | | | | [Gb] | [Ab]|
x / / / / / o o
 
 |-----------------------------------------------------------------------------------------------|
 |-14p=11p10h14p10h11h14p11p10----------------------10h11h13p11p10h11s13h14p13p11s10---------13--|
 |-----------------------------13p10h11h13p10h11h13----------------------------------11p10-x-----|
 |-----------------------------------------------------------------------------------------------|
 |-----------------------------------------------------------------------------------------------|
 |-----------------------------------------------------------------------------------------------|

| [Gb] | [Eb] | [Eb5] | | | | | | [Db5] | [Eb5] |
/ o o / / / / / / / /
 
 |----------------------------------------13h14h16p14p13h14h16-18p16p14p13h14h16p14p13p11h13h14p11h=13h14p13p11--------|
 |-10h11h13p11p10h11h13s14p13p11-13h14-16-----------------------------------------------------------------------14p13p=|
 |---------------------------------------------------------------------------------------------------------------------|
 |---------------------------------------------------------------------------------------------------------------------|
 |---------------------------------------------------------------------------------------------------------------------|
 |---------------------------------------------------------------------------------------------------------------------|

| | | | | | [Gb] | [Ab] |
/ / / / / / o o
 
 |--------------------11h14-11---------------------------------------------------------------------|
 |-11s10s11h=14p13h14----------14p9h11h14s13p9h11h13p11p9------------------------------------------|
 |--------------------------------------------------------13-11h13p11p10s8-10h11----8-x-/8-10h11p==|
 |-------------------------------------------------------------------------------10----------------|
 |-------------------------------------------------------------------------------------------------|
 |-------------------------------------------------------------------------------------------------|

| [Gb] | [Eb] | [Eb5] | | | | | | [Db5]| [Eb5]|
/ o o / / / / / / / /
 
 |------------------------------------------------------------------------------|
 |------------------------------------------------------------------------------|
 |-10p8-12-8-11h13p11p8-11p8-10h11p10p8-----------------------------------------|
 |--------------------------------------11p10p8s6h8h10p8p6s4-4h6h8-4s=3h4h6p4p3-|
 |------------------------------------------------------------------------------|
 |------------------------------------------------------------------------------|

| | | | | | [Gb] | [Ab]|
/ / / / / / o o
 
 |------------------------------------------------------------------|
 |------------------------------------------------------------------|
 |---------3h5h6p5p3------------------------------------------------|
 |-6p3h4h6-----------6p3h4h6----------------------------------------|
 |---------------------------6-4b6-(4)-[4]b6==(4)r(4)-(4)s12s3s11\--|
 |------------------------------------------------------------------|

| [Gb] | [EEb5]| | ||| | |[DEb5]||
/ o o / /// / ///
/ \1 /1____
 
 |-----------------------------|
 |-x-19b21===(19)r===19--------|
 |-x---------------------------|
 |-x---------------------------|
 |-----------------------------|
 |------------------------2----|

||||| |[BE5D#]||
x//// ///
Gt
\7______________
 
 |----------x\----||
 |----------x\----||
 |----------x\----||
 |----------x\----||
 |----------x\----||
 |-(2)------x\----||

Guitar solo II
|[DB]|| [B5]| | | | | | [A]| [B5]|
/oo / / / / / / o /
r IV
 
 |---7-7--------7--------7---------7--------7---------7--------|
 |-------10p7-----10p7-----10p7-10---10p7-----10p7------10p7---|
 |------------9--------9------------------9---------9--------9-|
 |-------------------------------------------------------------|
 |-------------------------------------------------------------|
 |-------------------------------------------------------------|

[A] | [B5] | | | | |[D]| [E]|
o / / / / /o o
~
 
 |---------------------------------------------|
 |-7-------------------------------------------|
 |---[9]b11==(9)r9p7b8-(7)---------------------|
 |-------------------------7-------------------|
 |---------------------------9p7-[9]b12-9--x\--|
 |-----------------------------------------x\--|

| [DB]| | [B5] | | | | | | [AB5]|| [AB5]|| | | | |[D]| [E]|
/ o o / / / / / / o/ o/ / / / /o o
\2/ \3 \2/ \2/
~~ ~~ ~~~~
 
 |----------------------------------------|-----------------------------------|
 |---------------19b22=h=21--19r-21b24====|=21-------19r-21b24--(21)--x\-10---|
 |-x----(x)---20-----------------21b23----|--------x-----21b23--------x\------|
 |-x----(x)-x-----------------------------|------x--------------------x\------|
 |-x----(x)-------------------------------|-----------------------------------|
 |-x----(x)-------------------------------|-----------------------------------|

| [D]| [B]| [B5] | | | | | | [A]| [B5]|
/ o o / / / / / / o /
~~
 
 |---------7--------------7--------------------------------------------|
 |-(10)b12---10p7-10-(10)---10p7------10p7h9h10p9p7----9---------------|
 |-------------------------------10-0---------------10---7s6h7h9p7p6s4-|
 |---------------------------------------------------------------------|
 |---------------------------------------------------------------------|
 |---------------------------------------------------------------------|

[A]| [B5]| | | | | [DE]||
o / / / / / oo
~~~
 
 |------------------------------------------------|
 |------------------------------------------------|
 |-6h7p6p4----------------------------------------|
 |---------7p6p4h6-(6)p4-7p6-(6)b7==(6)r(6)-x\----|
 |------------------------------------------x\----|
 |------------------------------------------x\----|

| [D] | [B] | [B5] | | | | ||[A] | [B5]|
/ o o / / / / // o /
/1_________/ \3
 
 |-/19---(19)-(19)-(19)--(19)-(19)---(19)--|
 |-----------------------------------------|
 |-----------------------------------------|
 |-----------------------------------------|
 |-----------------------------------------|
 |-----------------------------------------|

[A] | [B5] | | | | [E5F#]| |
o / / / / / /
/0.5____\1____/1____\1.5____/1____\1.5____/1____\1.5____/1.5____\1.5____/2____\1.5____/ \7___/
 
 |-(19)-(19)----(19)--(19)--(19)----(19)--(19)----(19)--(19)----(19)----(19)----(19)--(19)----(19)-(19)------||
 |-----------------------------------------------------------------------------------------------------------||
 |-----------------------------------------------------------------------------------------------------------||
 |--------------------------------------------------------------------------------------------------------x--||
 |--------------------------------------------------------------------------------------------------------x--||
 |--------------------------------------------------------------------------------------------------------x--||

Guitar solo III
| [EC#5]|| [E5] | [F#]|
/ o/ / /
/ / \1 \3 / \2.5 / \1 / \6
 
 |--------------------------|--------------------------------------------|
 |--------------------------|--------------------------------------------|
 |-<4>-----(<4>)--<2>-(<2>)-|-(<2>)--------------------------------------|
 |--------------------------|----------------------------------------x---|
 |--------------------------|--------------------------------------x-----|
 |--------------------------|-------0-0----(0)-(0)-(0)-(0)-(0)-<7>-------|

|[EC#5]| |
/o /
/ \1 /2____\2____/ /1___\1___/
 
 |---------------------------------------------------------|
 |---------------------------------------------------------|
 |---<2>--(<2>)-(<2>)-<3>--(<3>)-(<3>)-(<3>)-0---(0)--(0)--|
 |---------------------------------------------------------|
 |---------------------------------------------------------|
 |---------------------------------------------------------|

[EF#]|| |[EC#5]||
// /o/
/ \5.5 \2.5 \3
 
 |----------------------------|-----------------------|
 |----------------------------|----x\-----------------|
 |-<2>--(<2>)---(<2>)-(<2>)---|-----------------------|
 |----------------------------|-----------------------|
 |----------------------------|-------12s===7s14-21s4s|
 |----------------------------|-----------------------|

[EF#]|| |[EC#5]|| [E5] | [F#]|
// /o/ / /
| \4.5___/ / / |
 
 |--------------------|---------------|-------------------||
 |--------------------|---------------|-------------------||
 |--------------------|-----------6---|-(6)------(6)p4----||
 |--------------------|-----------6---|-(6)------(6)p4----||
 |-16--21s====16s4----|---------------|-------------------||
 |--------------------|----0--(0)-----|-------------------||

Gtr III
~~~~
 
 |-18b20-----(18)-----------------------||
 |-11b13-----(11)-----------------------||
 |--3b5-------(3)-----------------------||
 |--------------------------------------||
 |--------------------------------------||
 |--------------------------------------||

|
| Gtr I
| PM| PM
 
 |--------------------------------------||
 |--------------------------------------||
 |------------------6-4-----------------||
 |-------------6--------6-5-4-----------||
 |-------------6--6-----------7b7.5-4---||
 |-------x-4------4-------------------7-||

Outro
[F#5] [C#5] [A5]  
 
 PM------------------------------------------------------------------------|
 |---------------------------|--------------------------------------------------|
 |---------------------------|--------------------------------------------------|
 |---------------------------|-----------------------------6----------6---------|
 |------6-----------6--------|-------------------4---------6-----6----6---------|
 |------6-----6-----6------4-|--4--------4-------4-4-------4-----4----4-------7-|
 |-4-4----4---4--4-------0-2-|--2------0-2---------------------------------5--5-|

|
| ~~ ~~
 
 |---------------------------|--------------------------------------------------|
 |----------[12]---14b16-----|-14b14.5-----(14)-12---(12)-----------------------|
 |-----13-----4-----6b8------|--6b6.5-------(6)--4----(4)-13--------------------|
 |------6--------------------|-----------------------------6--------------------|
 |------------2-----4b6------|--4b4.5-------(4)--2----(2)-----------------------|
 |------4--------------------|-----------------------------4--------------------|

|
| Gtr II
| PM ~~
 
 |---------------------------|--------------------------------------------------|
 |---------------------------|--------------------------------------------------|
 |---------------------------|--------------------------------------------------|
 |---------------------------|----------------------------------11-9-11----9-11-|
 |---------------------------|-------------------------------11---------11------|
 |---------------------------|--------------------------------------------------|

[D#5] [A5]  
 
 PM------------------------------------------------------------------|
 |----------------------------------|----------------------------------------------|
 |----------------------------------|----------------------------------------------|
 |----------------------------------|------------8-------------8--------8----------|
 |---------------7----7----7------8-|----8-------8-------------8--------8----------|
 |--------7------7----7----7------6-|--6-------6--------6---------6-------0---7----|
 |------x-5------5-7----5--5----0---|-----------------------------------------5----|

|
| ~~~~~~~ ~~~~~~~~~~
 
 |-------------------12---14b16-----|-15--------------(15)---(15)------------------|
 |--------------14----5----7b9------|--8---------------(8)----(8)------------------|
 |---------------6------------------|----------------------------------------------|
 |--------------------2----4b6------|--5---------------(5)----(5)------------------|
 |---------------4------------------|----------------------------------------------|
 |----------------------------------|----------------------------------------------|

|
| ~~~~ ~~
 
 |----------------------------------|----------------------------------------------|
 |----------------------------------|----------------------------------------------|
 |----------------------------------|------------9b10------------------------------|
 |-(11)---9-x-----------------------|---------11-----------x--------11-------------|
 |------------x---------------------|------11----------10-----10-------10---(10)\--|
 |----------------------------------|----------------------------------------------|

[F#5] [C#5] [E5]  
 
 PM-----------------------------------------------------------------------------------------------
 |-----------------------------------|-------------------------------------------------------------|
 |-----------------------------------|-------------------------------------------------------------|
 |-----------------------------------|----------------6--------------------6------------6----------|
 |----------7----7----7--------------|----------------6--------------------6------------6------2---|
 |-7-7--7---7----7----7------------4-|----------4---------------4----------------4-------------2---|
 |-5----5-----5----5-------------0-2-|--2-----0-2------------------------------------------0-------|

|
| ~~~~~~~ ~~~~~~ ~~~~~
 
 |--------------12---14b16-----------|-14------------12b12.5------(12)-----------------------------|
 |---------14----5----7b9------------|--7-------------5b5.5--------(5)----14-----------------------|
 |----------6------------------------|-------------------------------------6-----------------------|
 |-----14\-------2----4b6------------|--4-------------2b2.5--------(2)-----------------------------|
 |----------4------------------------|-------------------------------------4-----------------------|
 |-----------------------------------|-------------------------------------------------------------|

|
| ~~~~
 
 |-------------------------12b14-----|-12pb14---9-12--9--------------------------------------------|
 |-------------------------12b14-----|-----------------------9-12----------------------------------|
 |-----------------------------------|-----------------------------11b13r(11)p9--------------------|
 |-----------------------------------|------------------------------------------11-11-(11)---(11)\-|
 |-----------------------------------|-------------------------------------------------------------|
 |-----------------------------------|-------------------------------------------------------------|

G#5 N.C.
 
 ----------------------| PM----| PM
 |------------------------|--------------------------------------------------------------------|
 |------------------------|--------------------------------------------------------------------|
 |------------------------|---------------------------------6------4---------------------------|
 |--------2----2----2-----|-----------------------6-------------------6-5---4------------------|
 |-2-2-2--2----2----2---6-|-----------------------6-----6----------------------7b7.5-4---------|
 |-0-0-0----0----0----0-4-|-------------x-----4---------4--------------------------------7-----|

|
| ~~~~~~~~~~~~ ~~~~~
 
 |-----------------16-----|-18b20===============(18)------(18)r\-------------------------------|
 |------------17----9-----|-11b13===============(11)------[11]r\-------------------------------|
 |-------16----9----1-----|--3b5=================(3)-------(3)r\-------------------------------|
 |--------9----2----------|--------------------------------------------------------------------|
 |--------2---------------|--------------------------------------------------------------------|
 |------------------------|--------------------------------------------------------------------|

|
| ~~~~~~~~~~~~
 
 |------------------------|------------14b16====(14)r14----14b16-(14)-----(14)---------(14)\---|
 |------------------------|----------x---------------------------------------------------------|
 |------------------------|--------x-----------------------------------------------------------|
 |------------------------|--------------------------------------------------------------------|
 |------------------------|--------------------------------------------------------------------|
 |------------------------|--------------------------------------------------------------------|

[G#5] [F#5] [C#5] [A5]  
 
 PM--------------------------------------------------------------------------------------|
 |---------------------------------------|---------------------------------------------------|
 |---------------------------------------|---------------------------------------------------|
 |---------------------------------------|-----------------------------------6--------6------|
 |------6------------------6-------------|---------------------4-------------6--6-----6------|
 |------6---------6--------6-----------4-|--4----------4-------4-----4-------4--4-----4----7-|
 |-4-4--------4---4----4------------0--2-|--2-------0--2---------------------------------5-5-|

|
| ~~~~~~ ~~
 
 |---------------------------------------|---------------------------------------------------|
 |--------------[12]------14b16----------|-14b14.5-------(14)-12-------(12)------------------|
 |-----13---------4--------6b8-----------|--6b6.5---------(6)--4--------(4)-13---------------|
 |------6--------------------------------|-----------------------------------6---------------|
 |----------------2--------4b6-----------|--4b4.5---------(4)--2--------(2)------------------|
 |------4--------------------------------|-----------------------------------4---------------|

|
| ~~~~~~~~ ~~~~~
 
 |-----21b24====(21)r(21)-19----------19-|---------------------------------------------------|
 |------------------------------21-20----|-21------20-19--17------------19-----17----17\-----|
 |---------------------------------------|--------------------18-18-18------18----18-18\-----|
 |---------------------------------------|---------------------------------------------------|
 |---------------------------------------|---------------------------------------------------|
 |---------------------------------------|---------------------------------------------------|

[D#5] [A5]  
 
 PM---------------------------------------------------------------------------------------------------|
 |--------------------------------------------------------------|---------------------------------------------|
 |--------------------------------------------------------------|---------------------------------------------|
 |--------------------------------------------------------------|------------------8-----------8----8---------|
 |-------7----------7----------------------7------------------8-|------8-----------8-----------8----8---------|
 |----7--7----------7----------------------7------------------6-|---6------6--------------6-------6---0--7----|
 |--x-5--5-------7---------5---------------5---------0----------|----------------------------------------5----|

|
| ~~~~~~~~~~~~~ ~~~~~~~~
 
 |-----------------12---------------------14b16-----------------|--15-------------------(15)-(15)-------------|
 |------14----------5----------------------7b9------------------|---8--------------------(8)--(8)-------------|
 |-------6------------------------------------------------------|---------------------------------------------|
 |------------------2----------------------4b6------------------|---5--------------------(5)--(5)-------------|
 |-------4------------------------------------------------------|---------------------------------------------|
 |--------------------------------------------------------------|---------------------------------------------|

|
| ~~~~~ ~~~~~~~~
 
 |-------x--9---------9-------------------------9---------------|---------------------------------------------|
 |-------x-12b14--------12p9-12b14==(12)r(12)-----12p9----------|---------------------------------------------|
 |-----------------------------------------------------11b12====|=(11)r==(11)p9-------------------------------|
 |--------------------------------------------------------------|---------------11p9--------------------------|
 |--------------------------------------------------------------|--------------------11--10--(10)-----x\------|
 |--------------------------------------------------------------|---------------------------------------------|

[F#5] [C#5] [E5]  
 
 PM--------------------------------------------------------------------------------------------------
 |-------------------------------------------------|--------------------------------------------------|
 |-------------------------------------------------|--------------------------------------------------|
 |-------------------------------------------------|---------6-------------------6-------------6------|
 |------------7--------7-------------7-------------|---------6-------------------6-------------6----2-|
 |-7-7--7-----7--------7-------------7-----------4-|------4------------4------------------4---------2-|
 |-5----5-----------5----------5--------------0--2-|--2-0-2---------------------------------------0---|

|
| ~~~~~~~~~~~~~~ ~~ ~~~~~~
 
 |--------------------12------------14b16----------|-14-----12b12.5--------(12)-----------------------|
 |-----------14--------5-------------7b9-----------|--7------5b5.5----------(5)-14--------------------|
 |-0----------6------------------------------------|-----------------------------6--------------------|
 |-----14\-------------2-------------4b6-----------|--4------2b2.5----------(2)-----------------------|
 |------------4------------------------------------|-----------------------------4--------------------|
 |-------------------------------------------------|--------------------------------------------------|

|
| ~~ ~ ~~~~~~PM|
 
 |-------------------------------------------------|--------------------------------------------------|
 |-------------------------------------------------|--------------------------------------------------|
 |------9b11-11--------9b11------------------------|--------------------------------------------------|
 |--------------11-11-------11-9-----9-------------|--------------------------------------------------|
 |-------------------------------11-------11s10-11-|-10-9---(9)-----10p9s7---9---9b11r(9)p7-------7-7-|
 |-------------------------------------------------|----------------------------------------9-(9)-----|

G#5 N.C.
 
 ---------------------------------------| PM| PM
 |-----------------------------------------|---------------------------------------------------|
 |-----------------------------------------|---------------------------------------------------|
 |-----------------------------------------|-------------------------6----4--------------------|
 |------------2--------2-----------2-------|----------------6----------------6--5-4------------|
 |-2-2-2------2--------2-----------2-----6-|----------------6---6-------------------7b7.5-4----|
 |-0-0-0------------0---------0--------0-4-|--------x--4--------4---------------------------7--|

|
| ~~~~~~~~~~~~~~~~~~~~~~~ ~~~~
 
 |--------------------------------16-------|-18b20========(18)-----(18)r\----------------------|
 |--------------------17-----------9-------|-11b13========(11)-----[11]r\----------------------|
 |-----------16--------9-----------1-------|--3b5==========(3)------(3)r\----------------------|
 |------------9--------2-------------------|---------------------------------------------------|
 |------------2----------------------------|---------------------------------------------------|
 |-----------------------------------------|---------------------------------------------------|

|
| /
| ~~~
 
 |-----------------------------------------|---------------------------------------------------|
 |-----------------------------------------|---------------------------------------------------|
 |-----------------------------------------|---------------------------------------------------|
 |-----------------------------------------|---------------------------------------------------|
 |-----x-<7>------7-7--9b11-7-7-x--9-7-9p7-|--9b11----(9)------(9)--(9)\----------x------------|
 |------------7h9--------------------------|------------------------------0-(0)-x--------------|

[G#5] [F#5] [C#5] [A5]  
 
 PM---------------------------------------------------------------------------------|
 |---------------------------------------|-----------------------------------------------|
 |---------------------------------------|-----------------------------------------------|
 |---------------------------------------|-----------------------------------6----6------|
 |-------6------------------6------------|-------------------4---------------6-6--6------|
 |-------6---------6--------6----------4-|--4--------4-------4---4-----------4-4--4---7--|
 |-4-4---------4---4--4--------------0-2-|--2------0-2------------------------------5-5--|

|
| ~~~ ~~
 
 |---------------------------------------|-----------------------------------------------|
 |---------------[12]------14b16---------|-14b14.5-----(14)-12---------(12)--------------|
 |------13---------4--------6b8----------|--6b6.5-------(6)--4----------(4)-13-----------|
 |-------6-------------------------------|-----------------------------------6-----------|
 |-----------------2--------4b6----------|--4b4.5-------(4)--2----------(2)--------------|
 |-------4-------------------------------|-----------------------------------4-----------|

|
| ~~~~~~~ ~~~~~~~
 
 |---------------------------------------|-----------------------------------------------|
 |---------------------------------------|-----------------------------------------------|
 |---------------------------------------|-----------------------9b9.5--(9)--------------|
 |------------11--[9]---11----------11---|--9-----------11---9-9------------11---11---x\-|
 |-----/11-11--------------------11------|-----------------------------------------------|
 |---------------------------------------|-----------------------------------------------|

[D#5] [A5]  
 
 PM----------------------------------------------------------------------------------------|
 |--------------------------------------------|----------------------------------------------------|
 |--------------------------------------------|----------------------------------------------------|
 |--------------------------------------------|------------------8-----------------8------8--------|
 |-------7-----------7-------7-------------8--|-------8----------8-----------------8------8--------|
 |----7--7-----------7-------7-------------6--|--6---------6--------------6-------------6---0-7----|
 |--x-5--5-----7-------5-----5--------0-------|-----------------------------------------------5----|

|
| ~~~~~~~~~~~~~~ ~~~~~~~~~~~~~~
 
 |------------------12------14b16-------------|-15----------------------(15)-----(15)--------------|
 |------14-----------5-------7b9--------------|--8-----------------------(8)------(8)--------------|
 |-------6------------------------------------|----------------------------------------------------|
 |-------------------2-------4b6--------------|--5-----------------------(5)------(5)--------------|
 |-------4------------------------------------|----------------------------------------------------|
 |--------------------------------------------|----------------------------------------------------|

|
| ~~ ~~~~~~
 
 |--------------------------------------------|----------------------------------------------------|
 |--------------------------------------------|----------------------------------------------------|
 |-------------------9------11----9-[11]-[12]-|-12p11p==9-11-12-12p11p9--11b13p9--11b12-----x-x----|
 |------------11-11------11-------------------|----------------------------------------------------|
 |---------11---------------------------------|----------------------------------------------------|
 |--------------------------------------------|----------------------------------------------------|

[F#5]  
 
 PM------------------------------------------------------------------------
 |--------------------------------------------------------------------------|
 |--------------------------------------------------------------------------|
 |--------------------------------------------------------------------------|
 |--------------7--------------7-------------------------7------------------|
 |-7--7-----7---7--------------7-------------------------7--------------4---|
 |-5--------5-----------5--------------5-----------------------------0--2---|

|
| ~~~~~~~~~~~~~~~~~~
 
 |----------------------------12------------------------14b16---------------|
 |-------------14--------------5-------------------------7b9----------------|
 |--------------6-----------------------

Important: The song above is NOT stored on the Chordie server. The original song is hosted at www.xguitar.com. Chordie works as a search engine and provides on-the-fly formatting. Chordie does not index songs against artists'/composers' will. To remove this song please click here.

Text color:
Chord color:
Chord grids: 
Font size:    
Page size: 

A A5 Ab B B5 C#5 D D#5 Db5 E E5 E5F# Eb Eb5 F# F#5 G#5 Gb
Rate #2 of 2 versions

Jango Player

Login - add to songbook

SHARE PAGE  



You need to log in to post comments