Guitar Tabs, Chords and Lyrics
Major upgrade!! After one year development the new version of Chordie is now online! Please give feedback.


Interior Two  John Frusciante

Track:09
Tabbed by Tom Woo
INTRO
 
 e|----------------------------------|
 B|--1---1-1--1-1----1---1-1--1-1----|
 G|--0---0-0--0-0----2---2-2--2-2----|
 D|--2---2-2--2-2----2---2-2--2-2----|
 A|--3---3-3--3-3----0---0-0--0-0----|
 E|----------------------------------|

Play this 4 times, then...
[C] We fall into the[Am] hands of doom,
[C] We're coming out in[Am]terior two,
Why don't you [F]come on over [G]now
(then there is a fill between the G and C)
 
 e|--------------|
 B|--------------|
 G|--------------|
 D|--------------|
 A|--2--0--2--3--|
 E|--------------|

[C] Things here will never [Am]be the same,
[C] We feed the light with [Am]shadows of pain,
Why don't you [F]come on back a[G]gain,
[F] I hear our song in the [C]wind,
[F] I see clouds laughing in[C]sa__________n[G]e,
 
 e|--------------|
 B|--------------|
 G|--------------|
 D|--------------|
 A|--2--0--2--3--|
 E|--------------|

[C]We fall into fore[Am]vers lap,
[C] We speak when all the [Am]lines are tapped,
And we end[F]lessly come on [G]back,
We come on [C]back[Am] [C] [Am] [C] [Am] [C] [Am] [F] [C]
 
 e|-12--15--17--15--12--15--17--15--12--15--17--15--12--15--17--19--20-------(20)--|
 B|--------------------------------------------------------------------------------|
 G|--------------------------------------------------------------------------------|
 D|--------------------------------------------------------------------------------|
 A|--------------------------------------------------------------------------------|
 E|--------------------------------------------------------------------------------|

I hear our song in the wind,
[F] I see clouds laughing [C]agai________[G]n,
 
 e|--------------|
 B|--------------|
 G|--------------|
 D|--------------|
 A|--2--0--2--3--|
 E|--------------|

[C]Whereever did we [Am]find this night,
[C] I'll come back in an[Am]other life,
Why don't you [F]come back over a[G]gain,
Wont't you come back [C]over, [Am]yeah_y[C]eah[Am] [C] [Am] [C] [Am] [C] [Am] [C] [Am] [C]
 
 e|-20----17----20---17-----20-----17-----20-----17-----20-----17----20-----17---15----(15)--|
 B|----------------------------------------------------------------------------------------------|
 G|----------------------------------------------------------------------------------------------|
 D|----------------------------------------------------------------------------------------------|
 A|----------------------------------------------------------------------------------------------|
 E|----------------------------------------------------------------------------------------------|

Over the solo/outro John sings "Come back" over and over.
CHORDS
[C] [Am] [F] [G]  
 
 e|------------3--|
 B|--1--1---1--0--|
 G|--0--2---2--0--|
 D|--2--2---3--0--|
 A|--3--0------2--|
 E|------------3--|


Important: The song above is NOT stored on the Chordie server. The original song is hosted at www.xguitar.com. Chordie works as a search engine and provides on-the-fly formatting. Chordie does not index songs against artists'/composers' will. To remove this song please click here.

Text color:
Chord color:
Chord grids: 
Font size:    
Page size: 

Am C F G
Rate #4 of 5 versions

Jango Player

Login - add to songbook

SHARE PAGE  




You need to log in to post comments