Guitar Tabs, Chords and Lyrics
Login is temporarily disabled for some users. Do not panic. Will be back in an hour or two. DO NOT REREGISTER!!


Away & Anywhere  John Frusciante

John Frusciante - Away & Anywhere
Tabbed By:
Main part
 
 E|(6)-(6)--(4)-(4)--6-|----------------|
 B|(6)-(6)--(4)-(4)--6-|-6-6-6-6-6-6-6--|
 G|(6)-(6)--(5)-(5)--6-|----------------|
 D| 8 - 8 -- 6 - 6 --8-|----------------|
 A| 8 - 8 -- 6 - 6 --8-|----------------|
 E|-6 - 6 -- 4 - 4 --6-|----------------|
 E|(6)-(6)--(4)-(4)--6-|----------------|
 B|(6)-(6)--(4)-(4)--6-|-6-6-6-6--------|
 G|(6)-(6)--(5)-(5)--6-|----------------|
 D| 8 - 8 -- 6 - 6 --8-|----------------|
 A|-8 - 8 -- 6 - 6 --8-|----------------|
 E| 6 - 6 -- 4 - 4 --6-|----------------|

other part
[Bbm] [Ab] [Ebm] [Ebm] 

Important: The song above is NOT stored on the Chordie server. The original song is hosted at www.xguitar.com. Chordie works as a search engine and provides on-the-fly formatting. Chordie does not index songs against artists'/composers' will. To remove this song please click here.

Text color:
Chord color:
Chord grids: 
Font size:    
Page size: 

Ab Bbm Ebm
Rate #1 of 1 versions

Login - add to songbook

SHARE PAGE  



You need to log in to post comments