Guitar Tabs, Chords and Lyrics
Major upgrade!! After one year development the new version of Chordie is now online! Please give feedback.


Not Myself   John Mayer

 
 e---3---2---0---0---
 b---3---3---8---8---
 g---0---0---0---0---
 d---0---0---7---x---
 a---x---x---8---7---
 e---3---2---x---8---

 


 


 Part 1


 


 Verse


 


 

 
 e---3---2---0---0-- ---3---2---0---x---
 b---3---3---8---8-- ---3---3---8--(8)--
 g---0---0---0---0-- ---0---0---0---0---
 d---0---0---7---x-- ---0---0---7---7---
 a---x---x---8---7-- ---x---x---8---8---
 e---3---2---x---8-- ---3---2---x---6---

 


 


 Part 2


 


 Chorus


 


 

 
 e---3--2--3--2---3--2--3--2---0---0--(2)-
 b---3--3--3--3---3--3--3--3---3---3--(3)-
 g---0--0--0--0---0--0--0--0---0---0--(0)-
 d---0--0--0--0---x--x--x--x---4---x--(x)-
 a---x--x--x--x---3--3--3--3---5---3--(3)-
 e---3--3--3--3----------------x---x---x--

 


 ***


 


 *** On the album, it's (x3x033)


 


 Part 3


 


 live


 


 * Don't forget that the chords are relative to the capo. 12 means 13..


 


 

 
 e-----------------------------------10---
 b-------------15--------10h12p10-----8---
 g----------12-----------11-----------9---
 d-------14-----------12-------------10---
 a------------------------------------x---
 e---12------------10----------------(8)--

 


 


 studio


 


 

 
 e--------------------------------------------
 b-------------15--------10h12p10----------8--
 g----------12--------11-11----11--------9----
 d-------14----------------------------10-----
 a------------------------------------x-------
 e---12------------10----------------8--------

 


 


 Part 4


 


 

 
 e----------------------3------------
 b---8---5--10------3---3------------
 g---7---4---9------0---0------------
 d---7---5---9------x---0---(etc..)--
 a---x---x---x------3---x------------
 e---7---3---9----------3------------

 


 


 There has to be a mistake here! (3x545x) sounds terrible but it's the best


 I can do. I simply play (x07650) during the " I always do" part.


 (Etc..) means that you play the intro.


 


 Part 5


 


 

 
 e----------------
 b----------------
 g----------------
 d-------------3--
 a-------3--6-----
 e---/4-----------

 


 


 Part 6


 


 (live)


 


 

 
 e---2--0--5----------
 b---3--3--3----------
 g---0--0--0----------
 d---0--0--0---(x2)---
 a---x--x--x----------
 e---3--3--3----------


Important: The song above is NOT stored on the Chordie server. The original song is hosted at www.xguitar.com. Chordie works as a search engine and provides on-the-fly formatting. Chordie does not index songs against artists'/composers' will. To remove this song please click here.

This song is displayed as text-only. Transposing and tuning is only available for chordpro-songs.
Rate #5 of 10 versions

Jango Player

Login - add to songbook

SHARE PAGE  




You need to log in to post comments