Guitar Tabs, Chords and Lyrics
Major upgrade!! After one year development the new version of Chordie is now online! Please give feedback.


Mr. Brightside  The Killers

 
 eb|-------------0-----------------------0----------|
 Bb|---------------17----------------------17-------|
 Gb|-------19---------19-----------19---------19----|
 Db|----16----16---------16-----16----16---------16-|
 Ab|-17----------------------16---------------------|
 Eb|------------------------------------------------|
 -------------0----------------------0--------|
 ---------------17---------------------17-----|
 -------19---------19----------19---------19--|
 ----16----16---------16----16----16----------|
 ---------------------------------------------|
 -15---------------------15-------------------|

basically you repeat that bit until: "but she's touching his CHEST now.." and on
you go to:
bridge:
 
 ---------0---------------0---------------0---------------0-------|
 -----------5---------------5---------------5---------------5-----|
 -----7-------7-------7-------7-------7-------7-------7-------7---|
 ---4---4-------4---4---4-------4---4---4-------4---4---4-------4-|
 -2---------------2---------------0---------------0---------------|
 -----------------------------------------------------------------|
 ---------0---------------0---------|
 -----------5---------------5-------|
 -----7-------7-------7-------7-----|
 ---4---4-------4---4---7-------4---|
 -----------------------------------|
 -3---------------3-----------------|

all of this looks a lot harder than it is, all of the shapes are the same except for a
root note. the first shape is a bit of a stretch, but it is possible with practice, also
is getting down the fretboard fast enough and right, but ditto.
anyway, repeat that until:
chorus: ok, the verse is the tricky bit, where a hell of a lot of stuff is going on.
the chorus has four repeats in it. the first two repeats i beleive the guitar is playing
of the main chords, ie:
chorus 1:
 
 ---------------------------------------|
 ---------------------------------------|
 -7-7-7-7-12-12-12-12-14-14-14-14-9-7-6-|
 ---------------------------------------|
 -5-5-5-5-10-10-10-10-12-12-12-12-7-5-4-|
 ---------------------------------------|

but for the third and fourth (from, "but it's just the PRICE i pay...") the guitar seems
change to higher arpeggio chords that go like this:
chorus 2:
 
 -14-------14-------14----7-----7-----7---10-------|
 ----15-------15-------15---8-----8-----8----10----|
 -------14-------14-----------7-----7-----------11-|
 --------------------------------------------------|
 --------------------------------------------------|
 --------------------------------------------------|
 -10-------10-------10----9------9------9-----|-------|
 ----10-------10-------10---10-----10-----10--|-------|
 -------11-------11------------9------9-------|-9-7-6-|
 ---------------------------------------------|-------|
 ---------------------------------------------|-------|
 ---------------------------------------------|-------|

with the end bit at the end of the second repeat.
then it all goes very synthy and full o' stuff, but i'd stick with just playing the
1 section above through it, until you get back into the verse.that's pretty much all the
you need, up until the kind of solo bit after the second chorus, which i've done my best to show here:
solo:
 
 ----------------------------------------------------------------------|
 -7-7-8-10-12-10-8-7-7-7-8-7-5-3-2-/-7-7-8-10-12-10-8-7-7-7-8-7-5-3-2--|
 ----------------------------------------------------------------------|
 ----------------------------------------------------------------------|
 ----------------------------------------------------------------------|
 ----------------------------------------------------------------------|

then it goes back into another crazy bit that i'd just stick with the chorus 1
until the very end, and the very satisfying:
 
 -------|
 -------|

-9-7-6-|
 
 -------|

-7-5-4-|
 
 -------|

so, the whole structure of the song as i've tabbed it here is:
intro/verse (x6)
bridge (x2)
chorus 1 (x2)
chorus 2 (x2)
chorus 1 (x2)
intro/verse (x4)
bridge (x2)
chorus 1 (x2)
chorus 2 (x2)
solo (x1)
chorus 2 (x4)
MR. BRIGHTSIDE THE KILLERS
( CAPO 1st Fret )
C C/B F ( x 2 )
[C]Coming out of my [C/B]cage
And I've been doing just f[F]ine
Gotta gotta be down
Because I want it a[C]ll
[C]It started out with a [C/B]kiss
How did it end up like th[F]is?
It was only a kiss
It was only a ki[C]ss
Now I'm falling [C/B]asleep
And she's calling a c[F]ab
While he's having a smoke
And she's taking the dr[C]ag
Now they're going [C/B]to bed
And my stomach is [F]sick
And it's all in my head
But she's touching his c[Am]hest now
He takes off her dr[G]ess now
Let me [F]go
A[Am]nd I just can't look
It's k[G]illing me
And tak[F]ing control
[C]Jealousy
[F]Turning saints in[Am]to the sea
[G]Turning (swimming) thr[C]ough sick lullaby
[F]Joking on your a[Am]libi
[G]But it's just the p[C]rice I pay
[F]Destiny is [Am]calling me
[G]Open up my e[C]ager eyes[F]
[Am]I'm Mr. Br[G]ightside
C F Am G ( x 4 )
( Repeat from start )
I never
C F Am G ( repeat )

Important: The song above is NOT stored on the Chordie server. The original song is hosted at www.xguitar.com. Chordie works as a search engine and provides on-the-fly formatting. Chordie does not index songs against artists'/composers' will. To remove this song please click here.

Text color:
Chord color:
Chord grids: 
Font size:    
Page size: 

Am C C/B F G
Rate #1 of 1 versions

Jango Player

Login - add to songbook

SHARE PAGE  




You need to log in to post comments