Guitar Tabs, Chords and Lyrics
Major upgrade!! After one year development the new version of Chordie is now online! Please give feedback.


The Element of One  Killswitch Engage

=================================
 
 +-------------------------------+

|KILLSWITCH ENGAGE |
|"THE ELEMENT OF ONE" |
|alive or just breathing |
 
 +-------------------------------+

=================================
This is my first tab. Comments welcome at slipknot_74261700027@hotmail.com
This song is one of the best songs of the "Alive Or Just Breathing". Buy the CD, it's very good, with heavy riffs and beautiful
melodies.
Enjoy it motherf****r! ROCK 'N' ROLL
 
 ------------------------------------------------------------------------------------------------------------------------------

Tuning: Drop C (C-G-C-F-A-D)
Legend: See Below
Q= 183
[3/4]Intro:
Gtr 1 (Acoustic)
E +Q Q E Q E E E E x3 Q E E E E Q E E E E x3 Q E E E E x4 Q E E E E x4
 
 D|-------------||--------------||------------||--------------|||--------------|||--------------||
 A|-1-(1)-------||--1-----------||-1----------||--1-----------|||--1-----------|||--1-----------||
 F|-3-(3)--3--3-||o-3--3-3-3-3-o||-2--2-2-2-2-||o-2--2-2-2-2-o|||o-3--3-3-3-3-o|||o-2--2-2-2-2-o||
 C|-3-(3)--3--3-||o-3--3-3-3-3-o||-3--3-3-3-3-||o-3--3-3-3-3-o|||o-3--3-3-3-3-o|||o-3--3-3-3-3-o||
 G|-1-(1)--1--1-||--1--1-1-1-1--||-0--0-0-0-0-||--0--0-0-0-0--|||--1--1-1-1-1--|||--0--0-0-0-0--||
 C|-------------||--------------||-0--0-0-0-0-||--0--0-0-0-0--|||--------------|||--0--0-0-0-0--||

^ ^ ^ ^ ^ ^
Intro/ Chorus
Gtr 1 (Distortion)
E E E E E E E E E E E E E E E E E E E E E E E E E E E E E E E E E E E E E E E E E E E E E E E E x4
 
 D||--------------|-------------|-------------|-------------|-------------|-------------|-------------|--------------||
 A||--1-1-1-1-1-1-|-------------|-------------|-------------|-1-1-1-1-1-1-|-------------|-------------|--------------||
 F||o-------------|-2-2-2-2-2-2-|-0-0-0-0-0-0-|-2-2-2-2-2-2-|-------------|-2-2-2-2-2-2-|-0-0-0-0-0-0-|-2-2-2-2-2-2-o||
 C||o-------------|-------------|-------------|-------------|-------------|-------------|-------------|-------------o||
 G||--------------|-------------|-------------|-------------|-------------|-------------|-------------|--------------||
 C||--------------|-------------|-------------|-------------|-------------|-------------|-------------|--------------||

|
|Gtr 2 (Distortion)
| W Q Q Q E E E E E E Q Q Q W Q Q Q E E E E E E Q Q Q x4
 
 D||--------------|-------------|-------------|-------------|-------------|-------------|-------------|--------------||
 A||--1-----------|-1-----------|-------1---1-|-1---1---1---|-------------|-------------|-------------|--------------||
 F||o-3-----------|-3-----------|-3-3---3---3-|-3---3---5---|-------------|-------------|-------------|-----2---5---o||
 C||o-3-----------|-3-----------|-3-3---3---3-|-3---3---3---|-0-----------|-0-----------|-0-0---0---0-|-0---0---3---o||
 G||--1-----------|-1-----------|-1-1---1---1-|-1---1---1---|-0-----------|-0-----------|-0-0---0---0-|-0---0---1----||
 C||--------------|-------------|-------------|-------------|-0-----------|-0-----------|-0-0---0---0-|-0---0--------||

Pre-Verse
Gtr 2 (Distortion)
[E] [E] [E] [E] [E] [E] [E] [E] [E] [E] [E] [E] [E] [E] [E] [E] [E] [E] [E] [E] [E] [E] [E] [E]  
 
 D|-------------|-------------|-------------|-------------|
 A|-------------|-------------|-------------|-------------|
 F|-------------|-------------|-------------|-------------|
 C|-------------|-------------|-------------|-------------|
 G|-0-0-0-5p0---|-----0-5p0---|-3-3-3-3p0---|-8-0---3-0---|
 C|-0-0-0-----3-|-0-3-------3-|-3-3-3-----3-|-----3-----3-|
 PM - - - - - - - - -

Verse 1
Gtr 2 (Distortion) |1 |2
E E E E E E E E E E E E | E E E E E E E E E E E E | E E E E E E E E E E E E E E E E E E E E E E E E
 
 D||--------------|-------------|-------------|--------------||-------------|-------------|-------------|-------------|
 A||--------------|-------------|-------------|--------------||-------------|-------------|-------------|-------------|
 F||o-------------|-------------|-------------|-------------o||-------------|-------------|-------------|-------------|
 C||o-------------|-------------|-------------|-------------o||-------------|-------------|-------------|-------------|
 G||------0-5-0---|-----0-5-0---|-----0-3-0---|-----0-1------||-----0-5-0---|-8-0---5-0---|-----0-5-0---|-----0-5-0---|
 C||--0-3-------3-|-0-3-------3-|-0-3-------0-|-0-0-----3-0--||-0-3-------3-|-----3-----3-|-0-3-------3-|-0-3-------3-|
 PM - - - - - - - - - - - - - - - - - - - - - - - - - - - - - - -

[E] [E] [E] [E] [E] [E] [E] [E] [E] [E] [E] [E]  
 
 D|-------------|-------------|
 A|-------------|-------------|
 F|-------------|-------------|
 C|-------------|-------------|
 G|-----0-3-0---|-----0-1-----|
 C|-0-3-------0-|-0-0-----3-0-|
 PM - - - - - - - - -

Verse 2
[4/4] Gtr 2 (Distortion)
E E E E E E E E E E E Q +E E E E E E E E E E E E E E E E E E +E
 
 D||------------------|------------------|-----------------|----------------------||
 A||------------------|------------------|-----------------|----------------------||
 F||o-0-3-0---0-5---7-|------------------|-0-3-0---0-5---7-|-------10-10-5-5-(5)-o||
 C||o-0-3-0-0-0-5-0-7-|-0-0-0-1--(1)-0-0-|-0-3-0-0-0-5-0-7-|-0-0-0-10-10-5-5-(5)-o||
 G||--0-1-0-0-0-3-0-5-|-0-0-0-1--(1)-0-0-|-0-1-0-0-0-3-0-5-|-0-0-0-8--8--3-3-(3)--||
 C||--------0-----0---|-0-0-0-1--(1)-0-0-|-0-----0-----0---|-0-0-0----------------||
 PM - - - - - - - - - - - - - - - -

Verse 3
[3/4] Gtr 2 (Distortion) |1 |2
E E E E E E E E E E E E | E E E E E E E E E E E E | E E E E E E E E E E E E
 
 D||--------------|-------------|-------------|--------------||-------------|-------------|
 A||--------------|-------------|-------------|--------------||-------------|-------------|
 F||o-------------|-------------|-------------|-------------o||-------------|-------------|
 C||o-------------|-------------|-------------|-------------o||-------------|-------------|
 G||------0-5-0---|-----0-5-0---|-----0-5-0---|-8-0---5-0----||-----0-3-0---|-----0-1-----|
 C||--0-3-------3-|-0-3-------3-|-0-3-------3-|-----3-----3--||-0-3-------0-|-0-0-----3-0-|
 PM - - - - - - - - - - - - - - - - - - - - - - -

Pre-Solo
Gtr 1 (Acoustic)
W +Q Q Q E E E E E E E E E E E E E E E E E E E E E E E E E E E E E E E E E E E E E E E E E E
 
 D|----------|------------|-1-----------|-1-----------|-1-----------|-------------|-------------|-------------|-1-----------|
 A|-1--------|-(1)-----3--|-------------|-------------|-------------|-3-----------|-3-----------|-3-----------|-------------|
 F|-3--------|-(3)--------|-----3---3---|-----3---3---|-----3---3---|-----3---3---|-----3---3---|-----3---3---|-----3---3---|
 C|-3--------|-(3)--------|-------------|-------------|-----3---3---|-----3---3---|-----3---3---|-----3---3---|-------------|
 G|-1--------|-(1)--------|---1---1---1-|---1---1---1-|---3---3---3-|---3---3---3-|---3---3---3-|---3---3---3-|---1---1---1-|
 C|----------|------------|-------------|-------------|-------------|-------------|-------------|-------------|-------------|

< <
[E] [E] [E] [E] [E] [E] [E] [E] [E] [E] [E] [E] [E] [E] [E] [E] [E] [E] [E] [E] [E] [E] [E] [E] [E] [E] [E] [E] [E] [E] [E] [E] [E] [E] [E] [E] [E] [E] [E] [E] [E] [E]  
 
 D|-1-----------|-1-----------|-1-----------|-------------|-------------|-------------|-------------|
 A|-------------|-------------|-------------|-3-----------|-3-----------|-3-----------|-3-----------|
 F|-----3---3---|-----3---3---|-----3---3---|-----3---3---|-----3---3---|-----3---3---|-----3---3---|
 C|-------------|-------------|-------------|-----3---3---|-----3---3---|-----3---3---|-----3---3---|
 G|---1---1---1-|---1---1---1-|---1---1---3-|---3---3---3-|---3---3---3-|---3---3---3-|---3---3---3-|
 C|-------------|-------------|-------------|-------------|-------------|-------------|-------------|

Solo
Gtr 2 (Distortion)
[E] [E] [E] [E] [E] [E] [E] [E] [E] [E] [E] [E] [E] [E] [E] [E] [E] [E] [E] [E] [E] [E] [E] [E] [E] [E] [E] [E] [E] [E] [E] [E] [E] [E] [E] [E] [E] [E] [E] [E] [E] [E] [E] [E] [E] [E] [E] [E]  
 
 D||--------------|-------------|-------------|-------------|-------5-----|-------5-----|-------------|--------------||
 A||--------------|-------------|-------------|-------------|-------------|-------------|-------------|--------------||
 F||o-------------|-------------|-------------|-------------|-2-----------|-2-----------|-2-----2-----|-0-----0-----o||
 C||o-3-0---0-----|-3-0---0-----|-3-0---0-----|-3-0---0-----|---0-----0---|---0-----0---|---3-----3---|---0-----0---o||
 G||------1---1-0-|-----1---1-0-|-----1---1-0-|-----1---1-0-|-----0-----0-|-----0-----0-|-----3-----3-|-----0-----0--||
 C||--------------|-------------|-------------|-------------|-------------|-------------|-------------|--------------||
 PM - - - - - - - - - - - - - - - - - - - - - - - - - - - - - - - - - - - -

Bridge
[4/4] Gtr 1 (Distortion)
Q Q Q Q Q Q Q Q Q Q Q Q Q Q Q Q Q Q Q Q Q Q Q Q Q Q Q Q Q Q Q Q Q Q Q Q
 
 D|-------------|-------------|-------------|-------------|-------------|-------------|-------------|-------------|-------------|
 A|-------5--6--|----5--6-----|-5--6-----5--|-6-----5--6--|----5--6-----|-5--6-----5--|-6-----5--6--|----5--6-----|-5--6-----5--|
 F|-------------|-------------|-------------|-------------|-------------|-------------|-------------|-------------|-------------|
 C|-------------|-------------|-------------|-------------|-------------|-------------|-------------|-------------|-------------|
 G|-------------|-------------|-------------|-------------|-------------|-------------|-------------|-------------|-------------|
 C|-------------|-------------|-------------|-------------|-------------|-------------|-------------|-------------|-------------|

|
|Gtr 2 (Distortion)
| W +W +W W +W +W W +W +W
 
 D|-------------|-------------|-------------|-1-----------|-(1)---------|-(1)---------|-------------|-------------|-------------|
 A|-3-----------|-(3)---------|-(3)---------|-3-----------|-(3)---------|-(3)---------|-3-----------|-(3)---------|-(3)---------|
 F|-2-----------|-(2)---------|-(2)---------|-3-----------|-(3)---------|-(3)---------|-2-----------|-(2)---------|-(2)---------|
 C|-0-----------|-(0)---------|-(0)---------|-3-----------|-(3)---------|-(3)---------|-0-----------|-(0)---------|-(0)---------|
 G|-0-----------|-(0)---------|-(0)---------|-1-----------|-(1)---------|-(1)---------|-0-----------|-(0)---------|-(0)---------|
 C|-0-----------|-(0)---------|-(0)---------|-------------|-------------|-------------|-0-----------|-(0)---------|-(0)---------|

Gtr 1 (Distortion)
Q Q Q Q Q Q Q Q Q Q Q Q
 
 D|-------------|-------------|-------------|
 A|-6-----5--6--|----5--6-----|-5--6--------|
 F|-------------|-------------|-------------|
 C|-------------|-------------|-------------|
 G|-------------|-------------|-------------|
 C|-------------|-------------|-------------|

|
|Gtr 2 (Distortion)
| W +W +W
 
 D|-1-----------|-(1)---------|-(1)---------|
 A|-3-----------|-(3)---------|-(3)---------|
 F|-3-----------|-(3)---------|-(3)---------|
 C|-3-----------|-(3)---------|-(3)---------|
 G|-1-----------|-(1)---------|-(1)---------|
 C|-------------|-------------|-------------|

Outro
[3/4] Gtr 2 (Distortion)
 
 D|-------------|
 A|-1-----------|(Let Ring this chord)
 F|-2-----------|
 C|-3-----------|(x4)
 G|-0-----------|
 C|-0-----------|

Structure:
Intro
Intro/ Chorus
Pre-Verse
Verse 1
Verse 2
Verse 3
Verse 3
Verse 2
Verse 2
Intro/ Chorus
Pre Solo
Solo
Bridge
Intro/ Chorus
Outro
 
 --------------------------------------------------------------------------------

Duration Legend
 
 ---------------
 W - whole; H - half; Q - quarter; E - 8th; S - 16th; T - 32nd; X - 64th; a - acciaccatura

+ - note tied to previous; . - note dotted; .. - note double dotted
Uncapitalized letters represent notes that are staccato (1/2 duration)
Irregular groupings are notated above the duration line
Duration letters will always appear directly above the note/fret number it represents the
duration for. Duration letters with no fret number below them represent rests. Multi-
bar rests are notated in the form Wxn, where n is the number of bars to rest for. Low
melody durations appear below the staff
Tablature Legend
 
 ----------------

h - hammer-on
p - pull-off
PM - palm muting
<> - volume swell (louder/softer)
x - on rhythm slash represents muted slash
Misc Legend
 
 -----------

| - bar
|| - double bar
||o - repeat start
o|| - repeat end
/\ /\
| | | |
| |__ __| |
__ | | | | |
| \ | | | | |
\ \| | | | |
\ |
\ |
\ /
\ /
\ /
| |
| |
Comments welcome at slipknot_74261700027@hotmail.com

Important: The song above is NOT stored on the Chordie server. The original song is hosted at www.xguitar.com. Chordie works as a search engine and provides on-the-fly formatting. Chordie does not index songs against artists'/composers' will. To remove this song please click here.

Text color:
Chord color:
Chord grids: 
Font size:    
Page size: 

E
Rate #1 of 2 versions

Login - add to songbook

SHARE PAGE  




You need to log in to post comments