Guitar Tabs, Chords and Lyrics
Major upgrade!! After one year development the new version of Chordie is now online! Please give feedback.


Fixation on the Darkness  Killswitch Engage

Alive Or Just Breathing
Drop C:
[C] [G] [C] [F] [A] [D]  
Intro: pick slide, then
gtr. 1
 
 d-----------------------------------------------------------------
 a-----------------------------------------------------------------
 f-----------------------------------------------------------------
 c-----------------------------------------------------------------
 g-5--------3--5------5-------5-------3--6-------6--------3h6p3p0--
 c-----0-0--------0-0-----0-0-----0-0--------0-0-----0-0-----------

* * * * * * * * * * * *
gtr. 2
 
 d-----------------------------------------------------------------
 a-----------------------------------------------------------------
 f-----------------------------------------------------------------
 c-0------------------------------------------------------6--------
 g-0------------------------------------------------------6--------
 c-0------------------------------------------------------6--------

gtr. 1
 
 d-----------------------------------------------------------------
 a-----------------------------------------------------------------
 f-----------------------------------------------------------------
 c-----------------------------------------------------------------
 g-5--------3--5------5-------5-------3--6--------3h6p3p0------3---
 c-----0-0--------0-0-----0-0-----0-0--------0-0------------6------

* * * * * * * * * *
gtr. 2
 
 d-----------------------------------------------------------------
 a-----------------------------------------------------------------
 f-----------------------------------------------------------------
 c-0--------------------------------------------------------6------
 g-0--------------------------------------------------------6------
 c-0--------------------------------------------------------6------

Riff A: (gtr. 1)
 
 d-----------------------------------------------------------------
 a-----------------------------------------------------------------
 f-----------------------------------------------------------------
 c-----------------------------------------------------------------
 g-5--------3--5------5-------5-------3--6-------6--------3h6p3p0--
 c-----0-0--------0-0-----0-0-----0-0--------0-0-----0-0-----------

* * * * * * * * * * * *
Fig. 1 (gtr. 2)
pm
 
 d-----------------------------------------------------------------
 a-----------------------------------------------------------------
 f-----------------------------------------------------------------
 c-----------------------------------------------------------------
 g-0-0------------0-0-0-0-0-0----------------0-0----------3--------
 c-0-0------------0-0-0-0-0-0----------------0-0----------5h6------

Riff A : (cont.) gtr. 1
 
 d-----------------------------------------------------------------
 a-----------------------------------------------------------------
 f-----------------------------------------------------------------
 c-----------------------------------------------------------------
 g-5--------3--5------5-------5-------3--6--------3h6p3p0------3---
 c-----0-0--------0-0-----0-0-----0-0--------0-0------------6------

* * * * * * * * * *
Fig. 1 (cont.) gtr. 2
pm
 
 d-----------------------------------------------------------------
 a-----------------------------------------------------------------
 f-----------------------------------------------------------------
 c-----------------------------------------------------------------
 g-0-0------------0-0-0-0-0-0----------------0-0------------3------
 c-0-0------------0-0-0-0-0-0----------------0-0------------5h6----

Verse:
 
 d-----------------------------------------------------------------
 a-----------------------------------------------------------------
 f-----------------------------------------------------------------
 c-------------------3-3-3---------------------------3-3-3---------
 g-0-----0---1---0---1-0-1---------0-----0---1---0---1-0-1-1/4-<4>-
 c-0-0-0-0-0-1-0-0-0-------3/6-<6>-0-0-0-0-0-1-0-0-0---------------

* * * * * * * * * *
 
 d-----------------------------------------------------------------
 a-----------------------------------------------------------------
 f-----------------------------------------------------------------
 c-------------------3-3-3---------------------------3-3-3-3/6--6--
 g-0-----0---1---0---1-0-1---------0-----0---1---0---1-0-1-1/4--4--
 c-0-0-0-0-0-1-0-0-0-------3/6-<6>-0-0-0-0-0-1-0-0-0---------------

* * * * * * * * * *
Pre Chorus: (x4), Riff A comes in 3rd time
pm
 
 d-----------------------------------------------------------------
 a-----------------------------------------------------------------
 f-----------------------------------------------------------------
 c-----------------------------------------------------------------
 g-0-0------------0-0-0-0-0-0----------------0-0------------3------
 c-0-0------------0-0-0-0-0-0----------------0-0------------5h6----

Verse:
 
 d-----------------------------------------------------------------
 a-----------------------------------------------------------------
 f-----------------------------------------------------------------
 c-------------------3-3-3---------------------------3-3-3---------
 g-0-----0---1---0---1-0-1---------0-----0---1---0---1-0-1-1/4-<4>-
 c-0-0-0-0-0-1-0-0-0-------3/6-<6>-0-0-0-0-0-1-0-0-0---------------

* * * * * * * * * *
 
 d-----------------------------------------------------------------
 a-----------------------------------------------------------------
 f-----------------------------------------------------------------
 c-------------------3-3-3---------------------------3-3-3-3/6--6--
 g-0-----0---1---0---1-0-1---------0-----0---1---0---1-0-1-1/4--4--
 c-0-0-0-0-0-1-0-0-0-------3/6-<6>-0-0-0-0-0-1-0-0-0---------------

* * * * * * * * * *
[2/4]  
 
 d----------
 a----------
 f----------
 c-/5p4-----
 g------5-0-
 c----------

Chorus: (x4)
 
 d---------3---------------2---------------0----------------3------
 a-----3-----3-------3-------3---------3-----3-------3--------3----
 f-------0-----0-------0-------0---------2-----2-------0--------0--
 c-----------------------------------------------------------------
 g---------------3-------3-------------------------------3---------
 c-2-------------------------------0-------------0-2---------------

Before Interlude:
Fig. 2
 
 d-----------------------------------------------------------------
 a-----------------------------------------------------------------
 f-----------------------------------------------------------------
 c-----------------7-7-7-7-----5-5-5-5-----8-8-8-8-------------1---
 g---------5-5-5-5---------------------6-6-------------3/4-x-x-1---
 c-0-0-0-0-----------------6-6---------------------0-0-3/4-x-x-1---

* * * * * * * * * * * *
 
 d-----------------------------------------------------------------
 a-----------------------------------------------------------------
 f-----------------------------------------7/8\7-------------------
 c-----------------7-7-7-7-----3-----5-----x-x-x-------------------
 g-0-0-0-0-5-5-5-5-------------1-----3-----5/6\5-------------------
 c-0-0-0-0-----------------0-0-----0---------------0--<3>~~~~~~----

* * * * * * * * * * *
Interlude:
gtr. 1 w/Fig. 2 (x2)
gtr. 2 w/Fig. 1 (x1.5)
gtr. 2
 
 d-----------------------------------------------------------------
 a-----------------------------------------------------------------
 f-----------------------------------9----101210-------------------
 c-----------------7-7-7-7-----3-----x-----x-x-x-------------------
 g-0-0-0-0-5-5-5-5-------------1-----7-----810-8-------------------
 c-0-0-0-0-----------------0-0---------------------0--<3>~~~~~~----

* * * * * * * * * *
Bridge:
 
 d-----------------------------------------------------------------
 a-----------------------------------------------------------------
 f------------------------------------------7---9----101210--------
 c------------------------------------------x---x-----x-x-x--------
 g-0---0-0------0-0-0-0-0-0-0-0-0---0-0-----5---7-----810-8--------
 c-0---0-0------0-0-0-0-0-0-0-0-0---0-0-------0---0-0-------0-<3>~-

* * * * * * * * * * * * * * * * *
gtr. 1
 
 d-----------------------------------------------------------------
 a-----------------------------------------------------------------
 f-----------------------------------------------------------------
 c------------------------------------------------7-7-7-7------3---
 g-0---0-0------0-0-0-0-0-0-0-0-0-0-0-----5-5-5-5--------------1---
 c-0---0-0------0-0-0-0-0-0-0-0-0-0-0-0-0-----------------0-0------

* * * * * * * * * * * * * * * *
gtr. 2
 
 d-----------------------------------------------------------------
 a-----------------------------------------------------------------
 f-----------------------------------------------------------------
 c-------------------------------------------------------------3---
 g-0---0-0------0-0-0-0-0-0-0-0-0-0-----------0---0------------1---
 c-0---0-0------0-0-0-0-0-0-0-0-0-0-----------0---0----------------

* * * * * * * * * * * * * * *
gtr. 1
 
 d-----------------------------------------------------
 a-----------------------------------------------------
 f--------7/8\7---------------------7--8-7-------------
 c---5----x-x-x--------3-----5------x--x-x-------------
 g---3----5/6\5--------1-----3------5--6-5-------------
 c-0-------------0--0-----0-----0-----------0--<3>~~~~-

* * * * *
gtr. 2
 
 d-----------------------------------------------------
 a-----------------------------------------------------
 f--------7/8\7--------7-----9-----10/12\10------------
 c---5----x-x-x--------x-----x------x--x-x-------------
 g---3----5/6\5--------5-----7------8/10\8-------------
 c-0-------------0--0-----0-----0-----------0--<3>~~~~-

* * * * *
Outro:
 
 d-----------------------------------------------------------------
 a-3---------------------------------------------------------------
 f-2-----------------------------------------------------7/8-------
 c-0-----------------------------------------------------x-x-------
 g-0-----------------------------------------------------5/6-----1-
 c-0-------------------------------------------------0-0-----0-0-1-

* * * *
 
 d-----------------------------------------------------------------
 a-----------------------------------------------------------------
 f-------------------------------------------------------7/8-------
 c-0----------0-------0----------------------------------x-x-------
 g-0----------0-------0----------x\--x\------x\----------5/6-----1-
 c-0----------0-------0----------x\--x\------x\------0-0-----0-0-1-

* * * *
(x4)
pm
 
 d-----------------------------------------------------------------
 a-----------------------------------------------------------------
 f-------------------------------------------------------7/8-------
 c-------------------------------------------------------x-x-------
 g-00-4-3-0-6-3-0-4-3-0-1-3-0-4-3-0-6-3-0-4-3-0-1-3------5/6-----1-
 c-00-4-3-0-6-3-0-4-3-0-1-3-0-4-3-0-6-3-0-4-3-0-1-3--0-0-----0-0-1-

that?s all
trevor jones
timmy91199@yahoo.ca

Important: The song above is NOT stored on the Chordie server. The original song is hosted at www.xguitar.com. Chordie works as a search engine and provides on-the-fly formatting. Chordie does not index songs against artists'/composers' will. To remove this song please click here.

Text color:
Chord color:
Chord grids: 
Font size:    
Page size: 

A C D F G
Rate #2 of 3 versions

Login - add to songbook

SHARE PAGE  




You need to log in to post comments