Guitar Tabs, Chords and Lyrics
Major upgrade!! After one year development the new version of Chordie is now online! Please give feedback.


The End of Heartache  Killswitch Engage

Song: The End of Heartache
Album: The End of Heartache
Tabbed: Angered Peanut
email: chop_suey53@hotmail.com
[C] [G] [C] [F] [A] [D]  
Key
0:00 Time the Riff Comes Into The Song
(G1) Guitar One or Guitar Two
* Palm Mute
/ Slide Down
H Hammer On
0:00
 
 D|---------------------------------------------| x16
 A|---------------------------------------------|
 F|--10-9----10-9----10-9----10-9----12-10-9----| (g1)
 C|-------10------10------10------10---------10-|
 G|---------------------------------------------|
 C|---------------------------------------------|

0:00
 
 D|---------------------------------------------| x2
 A|---------------------------------------------|
 F|---------------------------------------------| (g2)
 C|--0------------------------------------8-(0)-|
 G|--0------------------------------------8-(0)-|
 C|--0------------------------------------8-(0)-|

0:15
 
 D|-------------------------------------------| x2
 A|-------------------------------------------|
 F|-------------------------------------------| (g1+g2)
 C|--0000-0000-------------0000-0000----------|
 G|--0000-0000--7/8\7-3/5--0000-0000--7/8\7-3-|
 C|--0000-0000-------------0000-0000----------|

**** **** **** ****
 
 D|-------------------------------------------|
 A|-------------------------------------------|
 F|-------------------------------------------|
 C|--8888-8888-------------8888-8888--8-10-10-|
 G|--8888-8888--7/8\7-3/5--8888-8888--8-10-10-|
 C|--8888-8888-------------8888-8888--8-10-10-|

**** **** **** ****
0:46
 
 D|------------------------------------------------------------------------------------------| x1
 A|------------------------------------------------------------------------------------------|
 F|------------------------------------------------------------------------------------------| (g1+g2)
 C|------------------------------------------------------------------------------------------|
 G|--0000-000000-000000-000-0h3h6p3p0-0h2h5p2p0--0000-000000-000000-000-0h5h8p5p0-0h4h7p4p0--|
 C|--0000-000000-000000-000----------------------0000-000000-000000-000----------------------|

**** ****** ****** *** **** ****** ****** ***
 
 D|------------------------------------------------------------------------------|
 A|------------------------------------------------------------------------------|
 F|------------------------------------------------------------------------------|
 C|---------------------------------------------------------------------8-10-10--|
 G|--0000-000000-000000-000-0h3h6p3p0-0h2h5p2p0--0000-000000-000000-000-8-10-10--|
 C|--0000-000000-000000-000----------------------0000-000000-000000-000-8-10-10--|

**** ****** ****** *** **** ****** ****** ***
1:02
 
 D|-------------------------------------------| x2
 A|-------------------------------------------|
 F|-------------------------------------------| (g1+g2)
 C|--0000-0000-------------0000-0000----------|
 G|--0000-0000--7/8\7-3/5--0000-0000--7/8\7-3-|
 C|--0000-0000-------------0000-0000----------|

**** **** **** ****
 
 D|-------------------------------------------|
 A|-------------------------------------------|
 F|-------------------------------------------|
 C|--8888-8888-------------8888-8888--8-10-10-|
 G|--8888-8888--7/8\7-3/5--8888-8888--8-10-10-|
 C|--8888-8888-------------8888-8888--8-10-10-|

**** **** **** ****
1:33
 
 D|------------------------------------------------------------------------------------------| x1
 A|------------------------------------------------------------------------------------------|
 F|------------------------------------------------------------------------------------------| (g1+g2)
 C|------------------------------------------------------------------------------------------|
 G|--0000-000000-000000-000-0h3h6p3p0-0h2h5p2p0--0000-000000-000000-000-0h5h8p5p0-0h4h7p4p0--|
 C|--0000-000000-000000-000----------------------0000-000000-000000-000----------------------|

**** ****** ****** *** **** ****** ****** ***
 
 D|------------------------------------------------------------------------------|
 A|------------------------------------------------------------------------------|
 F|------------------------------------------------------------------------------|
 C|---------------------------------------------------------------------8-10-10--|
 G|--0000-000000-000000-000-0h3h6p3p0-0h2h5p2p0--0000-000000-000000-000-8-10-10--|
 C|--0000-000000-000000-000----------------------0000-000000-000000-000-8-10-10--|

**** ****** ****** *** **** ****** ****** ***
1:49
 
 D|---------------------------------------| x2
 A|---------------------------------------|
 F|--10101010-10101010-55555----10101010--| (g1+g2)
 C|--88888888-00000000-33333752-88888888--|
 G|--88888888-00000000-33333752-88888888--|
 C|--88888888-00000000-33333752-88888888--|

2:19
 
 D|--------------------------------| x4
 A|--------------------------------|
 F|--------------------------------| (g1)
 C|--0-10-8-7-8-7-5-7-8-7-5-3-2-3--|
 G|--------------------------------|
 C|--------------------------------|

* * * * * * * * * *
2:19
 
 D|-------------------------------------------| x4
 A|-------------------------------------------|
 F|-------------------------------------------| (g1+g2)
 C|--0000-0000-------------0000-0000----------|
 G|--0000-0000--7/8\7-3/5--0000-0000--7/8\7-3-|
 C|--0000-0000-------------0000-0000----------|

**** **** **** ****
 
 D|-------------------------------------------|
 A|-------------------------------------------|
 F|-------------------------------------------|
 C|--8888-8888-------------8888-8888--8-10-10-|
 G|--8888-8888--7/8\7-3/5--8888-8888--8-10-10-|
 C|--8888-8888-------------8888-8888--8-10-10-|

**** **** **** ****
2:51
 
 D|------------------------------------------------------------------------------------------| x1
 A|------------------------------------------------------------------------------------------|
 F|------------------------------------------------------------------------------------------| (g1+g2)
 C|------------------------------------------------------------------------------------------|
 G|--0000-000000-000000-000-0h3h6p3p0-0h2h5p2p0--0000-000000-000000-000-0h5h8p5p0-0h4h7p4p0--|
 C|--0000-000000-000000-000----------------------0000-000000-000000-000----------------------|

**** ****** ****** *** **** ****** ****** ***
 
 D|------------------------------------------------------------------------------|
 A|------------------------------------------------------------------------------|
 F|------------------------------------------------------------------------------|
 C|---------------------------------------------------------------------8-10-10--|
 G|--0000-000000-000000-000-0h3h6p3p0-0h2h5p2p0--0000-000000-000000-000-8-10-10--|
 C|--0000-000000-000000-000----------------------0000-000000-000000-000-8-10-10--|

**** ****** ****** *** **** ****** ****** ***
3:06
 
 D|---------------------------------------| x2
 A|---------------------------------------|
 F|--10101010-10101010-55555----10101010--| (g1+g2)
 C|--88888888-00000000-33333752-88888888--|
 G|--88888888-00000000-33333752-88888888--|
 C|--88888888-00000000-33333752-88888888--|

3:37
 
 D|----------------------------------------| x4
 A|----------------------------------------|
 F|----------------------------------------| (g1+g2)
 C|-------------------0-000-000-00-8-00-8--|
 G|-------------------0-000-000-00-8-00-8--|
 C|--5-7-5-3-5-3-3br--0-000-000-00-8-00-8--|

* *** *** ** **
 
 D|-------------------------------------------|
 A|-------------------------------------------|
 F|-------------------------------------------|
 C|-------------------0-000-000-00-8-000-000--|
 G|-------------------0-000-000-00-8-000-000--|
 C|--5-7-5-3-5-3-3br--0-000-000-00-8-000-000--|

* *** *** ** *** ***
4:09
 
 D|------------------------------------------------------------------------| x1
 A|------------------------------------------------------------------------|
 F|---7-7-7-7-7-9-10-9--7-7-7-7-7-9-10-9--5-5-5-5-7h9-9-7--7-7-7-7-9-9-9-9-| (g1)
 C|--8-8-8-8-8-8-8--8--7-7-7-7-7-7-7--7--5-5-5-5-5-5-5-5--8-8-8-8-8-8-8-8--|
 G|------------------------------------------------------------------------|
 C|------------------------------------------------------------------------|

4:23
 
 D|---------------------------------------| x2
 A|---------------------------------------|
 F|--10101010-10101010-55555----10101010--| (g1+g2)
 C|--88888888-00000000-33333752-88888888--|
 G|--88888888-00000000-33333752-88888888--|
 C|--88888888-00000000-33333752-88888888--|

4:54
 
 D|------------| x1
 A|------------|
 F|------------|

C|--0000-0000-|
G|--0000-0000-|
C|--0000-0000-|
**** ****

Important: The song above is NOT stored on the Chordie server. The original song is hosted at www.xguitar.com. Chordie works as a search engine and provides on-the-fly formatting. Chordie does not index songs against artists'/composers' will. To remove this song please click here.

Text color:
Chord color:
Chord grids: 
Font size:    
Page size: 

A C D F G
Rate #4 of 4 versions

Login - add to songbook

SHARE PAGE  




You need to log in to post comments