Guitar Tabs, Chords and Lyrics
Server problems seems to be fixed. Chordie has been experiencing problems with songs disappearing. These issues now seems to be fixed, but still verifying the fix. If you find anything strange, please email admin@chordie.com.


Crazy Crazy Nights   KISS

 
 ------------------

 


 


 transcribed by Peter Bibo


 


 E Tuning


 


 Key:


 / = slide up


 \ = slide down


 b = bend (whole step)


 b^ = bend (1/2 step)


 b^^ = bend (1 1/2 steps)


 pb = pre-bend


 r = release-bend


 r^ = release-bend half-step


 h^ = hammer-on


 p^ = pull-off


 t^ = tap-on


 Tp = Tap w\plectrum


 ~ = Vibrato


 * = Natural Harmonic




 ** = Artificial Harmonic


 x = Muted String (Palm Muting)


 X = Muted String (Fretboard Muting)


 (\) = Dive w\bar


 (/) = Release w\bar


 (W) = Wham w\bar


 


 Rhythm Fig. 1


 


 

 
 E|----------------------------------------------------|
 B|-12---13---12---------------------------------------|
 G|-12---12---12---7\5---4-------7---------------------|
 D|-12---12---12---7\5---4---7---7---------------------|
 A|-10---10---10---5\3---2---7---5---------------------|
 E|--------------------------5-------------------------|

 


 


 Rhythm Fig. 2


 


 

 
 E|----------------------------------------------------|
 B|-12---13---12---------------------------------------|
 G|-12---12---12---5-\4---7/9\7------------------------|
 D|-12---12---12---5-\4---7/9\7------------------------|
 A|-10---10---10---3-\2---5/7\5------------------------|
 E|----------------------------------------------------|

 


 


 Rhythm Fig. 3


 


 

 
 E|----------------------------------------------------|
 B|-12---13---12---------------------------------------|
 G|-12---12---12---5-\4---7-/-9------------------------|
 D|-12---12---12---5-\4---7-/-9------------------------|
 A|-10---10---10---3-\2---5-/-7------------------------|
 E|----------------------------------------------------|

 


 


 Rhythm Fig. 4


 


 

 
 E|-------3---------------------3----------------------|
 B|-----5---5-------8-7-------5---5-----8---7-8-7------|
 G|-5-5---------7-7-------5-5---------9---9-7----------|
 D|-5-----------7---------5-----------9-----7----------|
 A|-3-----------5---------3-----------7----------------|
 E|----------------------------------------------------|

 


 


 Rhythm Fig. 5


 


 

 
 E|----------------------------------------------------|
 B|-------5-------------7-------------8-----8---7------|
 G|-5---5---5-----7---7---7------9------9-----9--------|
 D|-5-5-------5---7-7---------10---10------------------|
 A|-3-------------5------------------------------------|
 E|----------------------------------------------------|

 


 


 Rhythm Fig. 6


 


 

 
 E|----------------------------------------------------|
 B|----------------------------------------------------|
 G|-------7-----12-----5-----7---7-7---5/7---7-7-------|
 D|-5-----7-----12-----5-----7---7-7---5/7---7-7-------|
 A|-5-----5-----10-----3-----5---5-5---3/5---5-5-------|
 E|-3--------------------------------------------------|

 


 


 Rhythm Fig. 7


 


 

 
 E|----------------------------------------------------|
 B|----------------------------------------------------|
 G|-5--------------------------------------------------|
 D|-5--------------------------------------------------|
 A|-3--------------------------------------------------|
 E|----------------------------------------------------|

 


 


 Rhythm Fig. 8


 


 

 
 E|----------------------------------------------------|
 B|----------------------------------------------------|
 G|-------10-----15-----8-----10---10-10---8/10--10-10-|
 D|-8-----10-----15-----8-----10---10-10---8/10--10-10-|
 A|-8-----8------13-----6-----8----8--8----6/8---8--8--|
 E|-6--------------------------------------------------|

 


 


 Rhythm Fig. 9


 


 

 
 E|----------------------------------------------------|
 B|-12---13---12---------------------------------------|
 G|-12---12---12---5-\4--------------------------------|
 D|-12---12---12---5-\4--------------------------------|
 A|-10---10---10---3-\2--------------------------------|
 E|----------------------------------------------------|

 


 


 Solo.


 


 

 
 E|------------------------15-(W)-(W)-(\)--------------|
 B|------------15-(W)-(W)------------------------------|
 G|-12-(W)-(W)-----------------------------------------|
 D|----------------------------------------------------|
 A|----------------------------------------------------|
 E|----------------------------------------------------|
 E|----------------------------------------------------|
 B|-------------------h^10p^7/5h^7p^5---5--------------|
 G|-4h^5p^4h^5/7---9b-----------------7---7~-----------|
 D|----------------------------------------------------|
 A|----------------------------------------------------|
 E|----------------------------------------------------|

 


 <-3x-> <-5 x->


 


 

 
 E|-------------------14/15~---20-19-20-19-20-19-21b~--|
 B|-----15-17---15-17----------------------------------|
 G|-/16------------------------------------------------|
 D|----------------------------------------------------|
 A|----------------------------------------------------|
 E|----------------------------------------------------|

 


 <-very fast pick->


 


 

 
 E|-17-19-19-17-----17-20-20-----17-20-19--------22~~~-|
 B|--------------20-----------20-----------20-22-------|
 G|----------------------------------------------------|
 D|----------------------------------------------------|
 A|----------------------------------------------------|
 E|----------------------------------------------------|

 


 


 Riff 1


 


 

 
 E|-------------------15-(W)---------------------------|
 B|-15\--------15-(W)--------15-(W)-15-(W)-------------|
 G|-----12-(W)-----------------------------------------|
 D|----------------------------------------------------|
 A|----------------------------------------------------|
 E|----------------------------------------------------|

 


 2x 2x 2x 2x 5x


 


 

 
 E|----------------------------------------------------|
 B|----------------------------------------------------|
 G|-15b-15-14-15-14------------------------------------|
 D|-----------------17-15-16---------------------------|
 A|--------------------------17------------------------|
 E|----------------------------------------------------|

 


 


 Riff 2


 


 

 
 E|---------------15-(W)-------------------------------|
 B|--------15-(W)--------15-(W)-15-(W)-(W)-(W)-(W)(\)--|
 G|-12-(W)---------------------------------------------|
 D|----------------------------------------------------|
 A|----------------------------------------------------|
 E|----------------------------------------------------|

 


 2x 2x 2x 2x 5x 2x


 


 Riff 3


 


 

 
 E|-17b-17r-15h^17p^15---------------------------------|
 B|--------------------18~-----------------------------|
 G|----------------------------------------------------|
 D|----------------------------------------------------|
 A|----------------------------------------------------|
 E|----------------------------------------------------|

 


 


 Riff 4


 


 

 
 E|-17b-15h^18p^15-------------------------------------|
 B|----------------18---15h^18p^15--------18-17-18-----|
 G|--------------------------------17b~----------------|
 D|----------------------------------------------------|
 A|----------------------------------------------------|
 E|----------------------------------------------------|

 


 * * *


 


 Riff 5


 


 

 
 E|---------------15-(W)-------------------------------|
 B|--------15-(W)--------15-(W)-15-(W)-(W)-(W)---------|
 G|-12-(W)---------------------------------------------|
 D|----------------------------------------------------|
 A|----------------------------------------------------|
 E|----------------------------------------------------|

 


 2x 2x 2x 2x


 


 

 
 E|----------------------------------------------------|
 B|-18b-18-15-18-18------------------------------------|
 G|-----------------17b-17r-15----15~------------------|
 D|----------------------------17----------------------|
 A|----------------------------------------------------|
 E|----------------------------------------------------|

 


 


 Riff 6


 


 

 
 E|---------------15-(W)--------------- - - - - - - - -|
 B|--------15-(W)--------15-(W)-15-(W)- - - - - - - - -|
 G|-12-(W)----------------------------- - - - - - - - -|
 D|------------------------------------ - - - - - - - -|
 A|------------------------------------ - - - - - - - -|
 E|------------------------------------ - - - - - - - -|


Important: The song above is NOT stored on the Chordie server. The original song is hosted at www.xguitar.com. Chordie works as a search engine and provides on-the-fly formatting. Chordie does not index songs against artists'/composers' will. To remove this song please click here.

This song is displayed as text-only. Transposing and tuning is only available for chordpro-songs.
Rate #3 of 9 versions

Login - add to songbook

SHARE PAGE  




You need to log in to post comments