Guitar Tabs, Chords and Lyrics
Major upgrade!! After one year development the new version of Chordie is now online! Please give feedback.


Forever  KISS

Date: Thu, 06 Jul 1995 15:04:23 EDT
From: AMXY75A@prodigy.com (MR JAMES L FREEMAN JR)
"FOREVER"
As recorded by KISS
From the Compact Disk HOT IN THE SHADE
Words and Music by Paul Stanley and M. Bolton
Tune down 1/2 step/Moderate rock(Bpm = 88)
1st Verse
[D] [Csus2] [G] [D(sus2)] 
I go[Em]t to tell[D] you what I'm [Cadd9]feeling in - side.___ I could lie to
myself, but its true.
[D] [Csus2] [G] [D(sus2)] 
There's[Em] no de - ny - in[D]' when I look i[Cadd9]n your-eyes.-- Girl, I'm out
of my head over you.
Pre Chorus
[Am7] [G/B] [C] [D] 
An[G/B]' I lived so long be - lieving' a[C]ll love is blind.-- [D]But
everything about you is telling me this time
Chorus
[G] [D] [Em] [C] [Am] 
Its for - ev[D] - er This time I[G] know[D] an[G]d there[Am7]'s no doubt in my mind.
For - ev - er. Until my life is
through, g[G/B]irl I'll be [C]loving you for - ev - er.[D] [C]
2nd Verse
[D]  
I hear the echo of a promise I made. When you'r[Cadd9]e strong[D] you can
stand on your own. But those
[Csus2] [G] [D(sus2)] 
[Em]words gro[D]w distant[Cadd9] as I look at your face. No, I don't wanna go it
alone.
Pre Chorus
[Am7] [G/B] [C] [D] 
[Am7]An' I never thought [G/B]I'd lay m[C]y heart on the line. [D]But everything
about you is telling me this time
Repeat chorus then solo
(Dsus2 Cadd9 G D Em D Cadd9)Chords during solo.
Repeat Pre Chorus three times.
Repeat Chorus then fade.
Ending chords are
Cadd9 Csus/Cadd9 repeat until totally faded.
KISS RULES!!
FOREVER (from the KISS-LP "HOT IN THE SHADE")
 
 -------

transcribed by Guilherme Ashcar (ashcar@ibm.net)
Eb Tuning
(the solo guitar is tuned with the 6 string on D)
Key:
/ = slide up
\ = slide down
b = bend (whole step)
b^ = bend (1/2 step)
b^^ = bend (1 1/2 steps)
pb = pre-bend
r = release-bend
r^ = release-bend half-step
h^ = hammer-on
p^ = pull-off
~ = Vibrato
* = Natural Harmonic

** = Artificial Harmonic
x = Muted String (Palm Muting)
X = Muted String (Fretboard Muting)
(\) = Dive w/ Bar
Rhythm Fig. 1
 
 Eb|---------------------------------0-----3--2--3--2---|
 Bb|-----3--------3--------3-------3---0----------------|
 Gb|---2---2--------0------------2----------------------|
 Db|-0----------0--------------0-----------2--------0---|
 Ab|----------3----------2------------------------------|
 Eb|-------------------3--------------------------------|
 Eb|-----0------0---------------------------------------|
 Bb|-------3----3---------------------------------------|
 Gb|---2--------0---------------------------------------|
 Db|------------2---------------------------------------|
 Ab|------------3---------------------------------------|
 Eb|----------------------------------------------------|

Rhythm Fig. 2
 
 Eb|----------------------------0-----------0-----------|
 Bb|------1----------3--------3------3----3---0---------|
 Gb|----0---0------0---0----0--------2--2---------------|
 Db|--2---------------------2--------0------------------|
 Ab|--0----------2----------3---------------------------|
 Eb|----------------------------------------------------|
 Eb|-----------------0-------------------0--------------|
 Bb|------1--------3---3-------3-------3---3------------|
 Gb|----0--------0-----------0-------2------------------|
 Db|--2--------------------2-------0--------------------|
 Ab|--0--------2-----------3----------------------------|
 Eb|----------------------------------------------------|

Rhythm Fig. 3
 
 Eb|--3--------2------------0-----0--0------0--0--0-----|
 Bb|--3--------3------------0-----1--1------1--1--1-----|
 Gb|--0--------2------------0-----0--0------2--2--2-----|
 Db|--0--------0------------2-----2--2------2--2--2-----|
 Ab|--2---------------------2-----3--3------0--0--0-----|
 Eb|--3-----------------0---0---------------------------|
 Eb|--2--2--2------3--3--3------2-------3-3-------------|
 Bb|--3--3--3------3--3--3------3-------3-3-------------|
 Gb|--2--2--2------0--0--0------2-------0-0-------------|
 Db|--0--0--0------0--0--0------0-------0-0-------------|
 Ab|---------------2--2--2--------------2-2-------------|
 Eb|---------------3--3--3--------------3-3-------------|

Rhythm Fig. 4
 
 Eb|--10-------10-10--------10-10--------10--8-7--------|
 Bb|-----7--8---------7--8---------7--8----------10--8--|
 Gb|----------------------------------------------------|
 Db|----------------------------------------------------|
 Ab|----------------------------------------------------|
 Eb|----------------------------------------------------|

end 1 end 2
 
 Eb|------------3-----2-----0---|--2----0----0----------|
 Bb|--7--5-5--------3-----3-----|--3----3----3----------|
 Gb|--------------0-----0-----0-|--2----0----0----------|
 Db|----------------------------|--0----2----2----------|
 Ab|----------------------------|-------3----3----------|
 Eb|----------------------------|-----------------------|

Rhythm Fig. 4a
 
 Eb|----------------------------------------------------|
 Bb|----------------------------------------------------|
 Gd|----------------------------------------------------|
 Db|---------2--2--2--2--2---4----4---5--5--5--5--5-----|
 Ab|---------0--0--0--0--0---2----2---3--3--3--3--3-----|
 Eb|--3---3---------------------------------------------|

end 1 end 2
 
 Eb|----------------------------|--2----0----0----------|
 Bb|----------------------------|--3----3----3----------|
 Gb|----------------------------|--2----0----0----------|
 Db|---7-----5---5--------------|--0----2----2----------|
 Ab|---5-----3---3--------------|-------3----3----------|
 Eb|----------------------------|-----------------------|

solo
 
 Eb|-----------10----10----10--10--10--8--7h^8p^7-------|
 Bb|-----------------------------------------------10---|
 Gb|---------7-----7------------------------------------|
 Db|----------------------------------------------------|
 Ab|----------------------------------------------------|
 D-|----0-----------------------------------------------|
 Eb|----------------------------------------------------|
 Bb|---8-7-5----5-7-7/8--5-7-7/8-5----------------------|
 Gb|---------7------------------------------------------|
 Db|--------------------------------5----4-5---4--------|
 Ab|-----------------------------------------7---5-7\3--|
 D-|----------------------------------------------------|
 Eb|----------------------------------------------7-----|
 Bb|----------------7-8-10--8-7--7h^8p^7---7-8-10----10-|
 Gb|---5*----7*--------------------------9--------------|
 Db|---5*----7*-----------------------------------------|
 Ab|----------------------------------------------------|
 D-|----------------------------------------------------|
 Eb|----------------------------------------------------|
 Bb|--8--7h^8p^7--5--7----------------------------------|
 Gb|--------------------7/9\7-----7---------------------|
 Db|----------------------------------------------------|
 Ab|---------------------------------9\7p^5---7\--------|
 D-|----------------------------------------------------|
 Eb|--------12-14-15--14-12-14-15-14--------------------|
 Bb|-----12--------------------------12-----------------|
 Gb|--12------------------------------------------------|
 Db|----------------------------------------------------|
 Ab|----------------------------------------------------|
 D-|----------------------------------------------------|
 Eb|-------19-------------17------------15-----------14-|
 Bb|-------20-------------19------------17-----------15-|
 Gb|--16---------16---14-------14---11-------11--11-----|
 Db|--17---------17---16-------16---14-------14--12-----|
 Ab|----------------------------------------------------|
 D-|----------------------------------------------------|

Rhythm Fig. 5
 
 Eb|--3--2-----3--2-----3--2-----3--2-----------0-------|
 Bb|--------3--------3--------3--------3--------3-------|
 Gb|--------------------------------------0-----0-------|
 Db|--------------------------------------------2-------|
 Ab|--------------------------------------------3-------|
 Eb|----------------------------------------------------|
 Eb|--0--3--2-----3--2-----3--2-----3--2----------0--0--|
 Bb|-----------3--------3--------3--------3-------3--3--|
 Gb|-----------------------------------------0----0--0--|
 Db|----------------------------------------------2--2--|
 Ab|----------------------------------------------3--3--|
 Eb|----------------------------------------------------|

Riff 1
 
 Eb|--0-------------------------------------------------|
 Bb|--3-------------------------------------------------|
 Gb|--0-------------------------------------------------|
 Db|--2-------------------------------------------------|
 Ab|--3-------------------------------------------------|
 Eb|----------------------------------------------------|

Riff 2
 
 Eb|--2-------------------------------------------------|
 Bb|--3-------------------------------------------------|
 Gb|--2-------------------------------------------------|
 Db|--0-------------------------------------------------|
 Ab|----------------------------------------------------|
 Eb|----------------------------------------------------|

Riff 3
 
 Eb|---------------------0--------2---2--2--------------|
 Bb|--------3---------3-----3-----3---3--3--------------|
 Gb|-----0---------2--------------2---2--2--------------|
 Db|--2---------0-----------------0---0--0--------------|
 Ab|--3-------------------------------------------------|
 Eb|----------------------------------------------------|

FOREVER
(P. Stanley/ M. Bolton)
[Rbytbm Fig. 1] w/ [Riff 1](at end)
I gotta tell you what I'm feelin' inside
I could lie to myself, but it's true
[Rbytbm Fig. 1] w/ [Riff 1](at end)
There's no denying when I look in your eyes
Girl I'm out of my head over you
[Rbytbm Fig. 2] 
I lived so long believin' all love is blind
But everything about you is tellin' me this time it's
[Rbytbm Fig. 3] 
Forever
This time I know and there's no doubt in my mind
Forever
[Rbytbm Fig. 4] w/ [Rbytbm Fig. 4a] (end 1)
Until my life is thru, girl I'll be lovin' you
Forever
[Rbytbm Fig. 1] w/ [Riff 2](at beginning) and [Riff 1](at end)
I hear the echo of a promise I made
When you're strong you can stand on your own
[Rbytbm Fig. 1] 
But those words grow distant as I look at your face
No, I don't wanna go it alone
[Rbytbm fig. 2] 
I never thought I'd lay my heart on the line
But everything about you is tellin' me this time it's
[Rbytbm Fig. 3] 
Forever
This time I know and there's no doubt in my life
Forever
[Rbytbm Fig. 4] w/ [Rbytbm Fig. 4a] (end 2)
Until my like is thru, Girl I'll be lovin' you
Forever
[solo] w/ [Rbytbm Fig. 1]
[Rbytbm Fig. 2] 
I see my future when I look in your eyes
And it took your love to make my heart come alive
[Rbytbm Fig. 2] w/ [Riff 3]
Cos I lived so long believin'all lovo is blind
But everything about you is tellin' me this time it's
[Rbytbm Fig. 3] 
Forever
This time I know and there's no doubt in my mind
Forever
[Rbytbm Fig. 4] w/ [Rbytbm fig. 4a] (end 1)
Until my life is thru, girl I'll be lovin' you
Forever
it's
[Rbytbm Fig. 3] 
Forever
This time I know and there's no doubt in my mind
Forever
[Rbytbm fig. 4] w/ [Rbytbm Fig. 4a] (end 2)
Until my life is thru, girl I'll be lovin' you
Forever
[Rbytbm Fig. 5] and fade

Important: The song above is NOT stored on the Chordie server. The original song is hosted at www.xguitar.com. Chordie works as a search engine and provides on-the-fly formatting. Chordie does not index songs against artists'/composers' will. To remove this song please click here.

Text color:
Chord color:
Chord grids: 
Font size:    
Page size: 

Am Am7 C Cadd9 Csus2 D D(sus2) Em G G/B
Rate #3 of 16 versions

Jango Player

Login - add to songbook

SHARE PAGE  



You need to log in to post comments