Guitar Tabs, Chords and Lyrics
Server problems seems to be fixed. Chordie has been experiencing problems with songs disappearing. These issues now seems to be fixed, but still verifying the fix. If you find anything strange, please email admin@chordie.com.


Hide Your Heart   KISS

 
 ---------------

 


 


 transcribed by Peter Bibo (pbibo@dds.nl)


 


 E Tuning


 


 Key:


 / = slide up


 \ = slide down


 b = bend (whole step)


 b^ = bend (1/2 step)


 b^^ = bend (1 1/2 steps)


 pb = pre-bend


 r = release-bend


 r^ = release-bend half-step


 h^ = hammer-on


 p^ = pull-off


 ~ = Vibrato


 * = Natural Harmonic




 ** = Artificial Harmonic


 x = Muted String (Palm Muting)


 X = Muted String (Fretboard Muting)


 (\) = Dive w\bar


 (/) = Release w\bar


 Tp = Tap w\plectrum


 


 Rhythm Fig. 1


 


 

 
 E|-2---2-2---2---2-2---5---5---2----------------------|
 B|-3---3-3---3---3-3---5---2---3----------------------|
 G|-4---4-4---4---4-4---6---2---4----------------------|
 D|-4---4-4---4---4-4---7---2---4---------0------------|
 A|-2---2-2---2---2-2---7---0---2-----0-2--(2)---------|
 E|-2---2-2---2---2-2---5-------2---2------------------|

 


 


 Rhythm Fig. 2


 


 

 
 E|-2---2-2---2---2-2---5---5---2----------------------|
 B|-3---3-3---3---3-3---5---2---3----------------------|
 G|-4---4-4---4---4-4---6---2---4----------------------|
 D|-4---4-4---4---4-4---7---2---4----------------------|
 A|-2---2-2---2---2-2---7---0---2---5-5-5-4-2----------|
 E|-2---2-2---2---2-2---5-------2-------------0--------|

 


 


 Rhythm Fig. 3


 


 

 
 E|-5---5-5-5---3---3-3-3---3---3-3-3---5---5-5-5------|
 B|-5---5-5-5---3---3-3-3---3---3-3-3---5---5-5-5------|
 G|-6---6-6-6---4---4-4-4---4---4-4-4---6---6-6-6------|
 D|-7---7-7-7---5---5-5-5---5---5-5-5---7---7-7-7------|
 A|-7---7-7-7---5---5-5-5---5---5-5-5---7---7-7-7------|
 E|-5---5-5-5---3---3-3-3---3---3-3-3---5---5-5-5------|

 


 


 Rhythm Fig. 4


 


 

 
 E|-5---5-5-5---3---3-3-3---3-----2-----5---5-5-5------|
 B|-5---5-5-5---3---3-3-3---3-----3-----5---5-5-5------|
 G|-6---6-6-6---4---4-4-4---4-----2-----6---6-6-6------|
 D|-7---7-7-7---5---5-5-5---5-----4-----7---7-7-7------|
 A|-7---7-7-7---5---5-5-5---5-----5-----7---7-7-7------|
 E|-5---5-5-5---3---3-3-3---3-----2-----5---5-5-5------|

 


 


 Rhythm Fig. 5


 


 

 
 E|-5---5-5-5---3---3-3-3---3-----3-----3-----3-5------|
 B|-5---5-5-5---3---3-3-3---3-----3-----3-----3-5------|
 G|-6---6-6-6---4---4-4-4---4-----4-----4-----4-6------|
 D|-7---7-7-7---5---5-5-5---5-----5-----5-----5-7------|
 A|-7---7-7-7---5---5-5-5---5-----5-----5-----5-7------|
 E|-5---5-5-5---3---3-3-3---3-----3-----3-----3-5------|

 


 


 Rhythm Fig. 6


 


 

 
 E|-5-----------3-----------3-----------5--------------|
 B|-5-----------3-----------3-----------5--------------|
 G|-6-----------4-----------4-----------6--------------|
 D|-7-----------5-----------5-----------7--------------|
 A|-7-----------5-----------5-----------7--------------|
 E|-5-----------3-----------3-----------5--------------|

 


 


 Rhythm Fig. 7


 


 

 
 E|-5-----------3-----------3-----2-----5--------------|
 B|-5-----------3-----------3-----3-----5--------------|
 G|-6-----------4-----------4-----2-----6--------------|
 D|-7-----------5-----------5-----4-----7--------------|
 A|-7-----------5-----------5-----5-----7--------------|
 E|-5-----------3-----------3-----2-----5--------------|

 


 


 Rhythm Fig. 8


 


 

 
 E|-5-----------3-----------3-----------5--------------|
 B|-5-----------3-----------3-----------5--------------|
 G|-6-----------4-----------4-----------6--------------|
 D|-7-----------5-----------5-----------7--------------|
 A|-7-----------5-----------5-----------7--------------|
 E|-5-----------3-----------3-----------5--------------|

 


 8x 8x 8x 8x


 


 Rhythm Fig. 9


 


 

 
 E|-5-----------3-----------3-----3-----3---3-3-3-3-5--|
 B|-5-----------3-----------3-----3-----3---3-3-3-3-5--|
 G|-6-----------4-----------4-----4-----4---4-4-4-4-6--|
 D|-7-----------5-----------5-----5-----5---5-5-5-5-7--|
 A|-7-----------5-----------5-----5-----5---5-5-5-5-7--|
 E|-5-----------3-----------3-----3-----3---3-3-3-3-5--|

 


 8x 8x


 


 Rhythm Fig. 10


 


 

 
 E|----------------------------------------------------|
 B|----------------------------------------------------|
 G|-7-6------------------------------------------------|
 D|-----9-7--------------------------------------------|
 A|----------------------------------------------------|
 E|----------------------------------------------------|

 


 x x x x


 


 Rhythm Fig. 11


 


 

 
 E|-2-2-----0------------------------------------------|
 B|-3---3-----3----------------------------------------|
 G|-4-----4-----4--------------------------------------|
 D|-4--------------------------------------------------|
 A|-2--------------------------------------------------|
 E|-2--------------------------------------------------|
 <--- 4 x --->

 


 


 Rhythm Fig. 12


 


 

 
 E|----------------------------------------------------|
 B|-------7--------------------7-----------------------|
 G|---7-9-----9b-9b-9~-----7-9---9-7-9-7---------------|
 D|-9--------------------9---------------9-------------|
 A|----------------------------------------------------|
 E|----------------------------------------------------|

 


 


 Rhythm Fig. 13


 


 

 
 E|----------------------------10-7------7-------------|
 B|-------7-------------------------10-7---10-7--------|
 G|---7-9-----9b-9b-9~-----7-9------------------9------|
 D|-9--------------------9-----------------------------|
 A|----------------------------------------------------|
 E|----------------------------------------------------|
 E|----------------------------------------------------|
 B|-10-7-----7-----------------------------------------|
 G|------9-7---9-7-------------------------------------|
 D|----------------9-----------------------------------|
 A|----------------------------------------------------|
 E|----------------------------------------------------|

 


 


 Rhythm Fig. 14


 


 

 
 E|----------------------------------------------------|
 B|----------------------------------------------------|
 G|-----9-----9----------------------------------------|
 D|-7-7---7-7---7-7------------------------------------|
 A|----------------------------------------------------|
 E|----------------------------------------------------|

 


 x x x x x x x x


 


 Rhythm Fig. 15


 


 

 
 E|----------------------------------------------------|
 B|----------------------------------------------------|
 G|-----9-----9---------7-----7---------9-----9--------|
 D|-7-7---7-7---7-7-5-5---5-5---5-5-7-7---7-7---7-7----|
 A|----------------------------------------------------|
 E|----------------------------------------------------|

 


 x x x x x x x x x x x x x x x x x x x x x x x x


 

 
 <---- 2 x ---->

 


 


 Rhythm Fig. 16


 


 

 
 E|----------------------------------------------------|
 B|----------------------------------------------------|
 G|-----9-----9---------7-----7---------9-----9--------|
 D|-7-7---7-7---7-7-5-5---5-5---5-5-7-7---7-7---7-7----|
 A|----------------------------------------------------|
 E|----------------------------------------------------|
 <---- 2 x ---->

 


 


 Rhythm Fig. 17


 


 

 
 E|-----------------------------------------15(\)------|
 B|----------------------------------------------------|
 G|-----9-----9-----7-7-7-7-7-7-7-7-7~~----------------|
 D|-7-7---7-7---7-7-5-5-5-5-5-5-5-5-5~~----------------|
 A|----------------------------------------------------|
 E|----------------------------------------------------|

 


 


 Rhythm Fig. 18


 


 

 
 E|----------------------------------------------------|
 B|-12-15-12-15-12-15b---17b17rp^15--------------------|
 G|---------------------------------16-----------------|
 D|----------------------------------------------------|
 A|----------------------------------------------------|
 E|----------------------------------------------------|

 


 


 Rhythm Fig. 19


 


 

 
 E|--------------------------------------17-----19~~---|
 B|-15p^12---------------------------17b----17r--------|
 G|--------14-15b-15~-12----12~\-----------------------|
 D|----------------------14----------------------------|
 A|----------------------------------------------------|
 E|----------------------------------------------------|

 


 <- 2 x ->


 


 Intro Solo.


 


 

 
 E|----------------------------------------------------|
 B|-15b------------------------------------------------|
 G|-------16p^14h^16~~---9b-9rp^7-9/11-7---------------|
 D|----------------------------------------------------|
 A|----------------------------------------------------|
 E|----------------------------------------------------|
 E|-10-7--------7--------------------------------------|
 B|------10-7-----10-7-----10-7---7--------------------|
 G|--------------------9--------9-----9b-9rp^7---------|
 D|--------------------------------------------9~~-----|
 A|----------------------------------------------------|
 E|----------------------------------------------------|

 


 


 Solo.


 (Guitar 1) (Guitar 2)


 

 
 E|-------------------|-------7h^10p^7----7-7----------|
 B|-------------------|-7h^10----------10--------------|
 G|-------2---------2-|--------------------------------|
 D|---2-4-0-4-4-2-4-0-|--------------------------------|
 A|-4-0-2---2-2-0-2---|--------------------------------|
 E|-2-----------------|--------------------------------|

 


 


 (Guitar 1) (Guitar 2)


 

 
 E|-------------------|--------------------------------|
 B|-------------------|-7h^10-10p^7-5h^7-5b5r----------|
 G|---------2---------|-----------------------7~~------|
 D|-4-4-2-4-0---------|--------------------------------|
 A|-2-2-0-2-----------|--------------------------------|
 E|-------------------|--------------------------------|

 


 


 (Guitar 1) (Guitar 2)


 

 
 E|-------------------|--------------------------------|
 B|-------------------|-17b-17p^15-17-19-15p^12-15b~---|
 G|-2---------2-------|--------------------------------|
 D|-0-4-4-2-4-0-------|--------------------------------|
 A|---2-2-0-2---------|--------------------------------|
 E|-------------------|--------------------------------|

 


 


 (Guitar 1) (Guitar 2)


 

 
 E|-------------------|--------------------------------|
 B|-------------------|-----19-22-19-------------------|
 G|-------------2-----|-21b----------21b21rp^19h^21~~~-|
 D|---2-4-4-2-4-0-----|--------------------------------|
 A|-4-0-2-2-0-2-------|--------------------------------|
 E|-2-----------------|--------------------------------|
 <--- 3x --->


Important: The song above is NOT stored on the Chordie server. The original song is hosted at www.xguitar.com. Chordie works as a search engine and provides on-the-fly formatting. Chordie does not index songs against artists'/composers' will. To remove this song please click here.

This song is displayed as text-only. Transposing and tuning is only available for chordpro-songs.
Rate #2 of 7 versions

Login - add to songbook

SHARE PAGE  




You need to log in to post comments