Guitar Tabs, Chords and Lyrics
Server problems seems to be fixed. Chordie has been experiencing problems with songs disappearing. These issues now seems to be fixed, but still verifying the fix. If you find anything strange, please email admin@chordie.com.


Let Me Know   KISS

 
 -----------

 


 


 transcribed by Mark Perillo (mark@kisstabs.com)


 


 Eb Tuning


 


 Key:


 / = slide up


 \ = slide down


 b = bend (whole step)


 b^ = bend (1/2 step)


 b^^ = bend (1 1/2 steps)


 pb = pre-bend


 r = release-bend


 r^ = release-bend half-step


 h^ = hammer-on


 p^ = pull-off


 ~ = Vibrato


 * = Natural Harmonic




 ** = Artificial Harmonic


 x = Muted String (Palm Muting)


 X = Muted String (Fretboard Muting)


 


 Rhythm Fig. 1


 


 

 
 Eb|----------------------------------------------------|
 Bb|--2-2-3--9-9-9-10-9-10-9--9-9-10-9-10-9-------------|
 Gb|--2-2-2--9-9-9-9--9-9--9--9-9-9--9-9--9-------------|
 Db|--2-2-4--9-9-9-11-9-11-9--9-9-11-9-11-9-------------|
 Ab|--0-0-0---------------------------------------------|
 Eb|----------------------------------------------------|

 


 <-4x->


 


 

 
 Eb|----------------------------------------------------|
 Bb|-7-7-8-7-8-7---9-9-10-9-10-9------------------------|
 Gb|-7-7-7-7-7-7---9-9-9--9-9--9------------------------|
 Db|-7-7-9-7-9-7---9-9-11-9-11-9------------------------|
 Ab|-----------------------------0-0-4-5-6-7~-----------|
 Eb|----------------------------------------------------|
 <----2x---->

 


 


 Rhythm Fig. 1a


 


 

 
 Eb|----------------------------------------------------|
 Bb|----------------------------------------------------|
 Gb|----------------------------------------------------|
 Db|---7-7-9-7-9-7---9-9-11-9-11-9----------------------|
 Ab|---5-5-5-5-5-5---7-7-7--7-7--7--0-0-4-5-6-7~--------|
 Eb|----------------------------------------------------|
 <----2x---->

 


 


 Rhythm Fig. 2


 


 

 
 Eb|----------------------------------------------------|
 Bb|--2-2-3--9-9-9-10-9-10-9--9-9-10-9-10-9-------------|
 Gb|--2-2-2--9-9-9-9--9-9--9--9-9-9--9-9--9-------------|
 Db|--2-2-4--9-9-9-11-9-11-9--9-9-11-9-11-9-------------|
 Ab|--0-0-0---------------------------------------------|
 Eb|----------------------------------------------------|

 


 <-4x->


 


 

 
 Eb|----------------------------------------------------|
 Bb|-7-7-8-7-8-7---9-9-10-9-10-9------------------------|
 Gb|-7-7-7-7-7-7---9-9-9--9-9--9------------------------|
 Db|-7-7-9-7-9-7---9-9-11-9-11-9------------------------|
 Ab|-----------------------------0-0-4-5-6-7~-----------|
 Eb|----------------------------------------------------|
 Eb|----------------------------------------------------|
 Bb|--2-2-3--9-9-9-10-9-10-9--9-9-10-9-10-9-------------|
 Gb|--2-2-2--9-9-9-9--9-9--9--9-9-9--9-9--9--7-7-8-9/---|
 Db|--2-2-4--9-9-9-11-9-11-9--9-9-11-9-11-9--7-7-8-9/---|
 Ab|--0-0-0----------------------------------5-5-6-7/---|
 Eb|----------------------------------------------------|

 


 <-4x->


 


 end. 1


 

 
 Eb|----------------------------------------------------|
 Bb|--2-2-3--2------------------------------------------|
 Gb|--2-2-2--2------------------------------------------|
 Db|--2-2-4--2------------------------------------------|
 Ab|--0-0-0--0------------------------------------------|
 Eb|----------------------------------------------------|

 


 <-2x->


 


 Rhythm Fig. 3


 


 

 
 Eb|----------------------------------------------------|
 Bb|------------------10-10-12-10-12-10-----------------|
 Gb|---9-9-11-9-11-9--9--9--9--9--9--9------------------|
 Db|---9-9-9--9-9--9------------------------------------|
 Ab|----------------------------------------------------|
 Eb|----------------------------------------------------|
 <------2x---> <-------2x------>
 Eb|----------------------------------------------------|
 Bb|------------------10-10-12-10-12-10-----------------|
 Gb|---9-9-11-9-11-9--9--9--9--9--9--9--2-4-5-6-7-------|
 Db|---9-9-9--9-9--9--------------------2-4-5-6-7-------|
 Ab|----------------------------------------------------|
 Eb|----------------------------------------------------|
 <------2x--->
 Eb|----------------------------------------------------|
 Bb|----------------10-10-12-10-12-10-------------------|
 Gb|---7-7-9-7-9-7--9--9--9--9--9--9--9-9-11-9-11-9-11-9|
 Db|---7-7-7-7-7-7--------------------9-9-9--9-9--9-9--9|
 Ab|----------------------------------------------------|
 Eb|----------------------------------------------------|
 <-----2x---> <-------2x------> <-------2x------->
 Eb|----------------------------------------------------|
 Bb|---2-2-3-2-2-3-2------------------------------------|
 Gb|---2-2-2-2-2-2-2------------------------------------|
 Db|---2-2-4-2-2-4-2------------------------------------|
 Ab|---0-0-0-0-0-0-0------------------------------------|
 Eb|----------------------------------------------------|

 


 


 Rhythm Fig. 3a


 


 

 
 Eb|------------------5-5-------------------------------|
 Bb|------------------5-5-------------------------------|
 Gb|---9-9------------6-6-------------------------------|
 Db|---9-9------------7-7-------------------------------|
 Ab|---7-7------------7-7-------------------------------|
 Eb|---0-0------------5-5-------------------------------|
 Eb|------------------5-5-------------------------------|
 Bb|------------------5-5-------------------------------|
 Gb|---9-9------------6-6-------------------------------|
 Db|---9-9------------7-7---------------7-9-10-11-------|
 Ab|---7-7------------7-7---------------7-9-10-11-------|
 Eb|---0-0------------5-5---------------5-7-8--9--------|
 Eb|----------------5-5---------------------------------|
 Bb|----------------5-5---------------------------------|
 Gb|---7-7----------6-6---------------9-9---------------|
 Db|---7-7----------7-7---------------9-9---------------|
 Ab|---5-5----------7-7---------------7-7---------------|
 Eb|----------------5-5---------------0-0---------------|
 Eb|----------------------------------------------------|
 Bb|---2-2-3-2-2-3-2------------------------------------|
 Gb|---2-2-2-2-2-2-2------------------------------------|
 Db|---2-2-4-2-2-4-2------------------------------------|
 Ab|---0-0-0-0-0-0-0------------------------------------|
 Eb|----------------------------------------------------|

 


 


 Rhythm Fig. 4


 


 

 
 Eb|----------------------------------------------------|
 Bb|----------------------------------------------------|
 Gb|----------------------------------------------------|
 Db|--9-9-11--9-9-11--9-9-9-11--9-9-11------------------|
 Ab|--7-7-7---7-7-7---7-7-7-7---7-7-7-------------------|
 Eb|----------------------------------------------------|
 Eb|----------------------------------------------------|
 Bb|----------------------------------------------------|
 Gb|----------------------------------------------------|
 Db|--2-2-4---2-2-4---2-2-2-4---2-2-4-------------------|
 Ab|--0-0-0---0-0-0---0-0-0-0---0-0-0-------------------|
 Eb|----------------------------------------------------|
 Eb|----------------------------------------------------|
 Bb|----------------------------------------------------|
 Gb|----------------------------------------------------|
 Db|--9-9-11--9-9-11--9-9-9-11--9-9-11------------------|
 Ab|--7-7-7---7-7-7---7-7-7-7---7-7-7-------------------|
 Eb|----------------------------------------------------|
 Eb|----------------------------------------------------|
 Bb|----------------------------------------------------|
 Gb|----------------------------------------------------|
 Db|--2-2-4---2-2-4---2-2-2-4---2-2-4-------------------|
 Ab|--0-0-0---0-0-0---0-0-0-0---0-0-0-------------------|
 Eb|----------------------------------------------------|
 Eb|----------------------------------------------------|
 Bb|----------------------------------------------------|
 Gb|----------------------------------------------------|
 Db|--7-7-9---7-7-9---7-7-7-9---7-7-9-------------------|
 Ab|--5-5-5---5-5-5---5-5-5-5---5-5-5-------------------|
 Eb|----------------------------------------------------|
 Eb|----------------------------------------------------|
 Bb|----------------------------------------------------|
 Gb|----------------------------------------------------|
 Db|--2-2-4---2-2-4---2-2-2-4---2-2-4-------------------|
 Ab|--0-0-0---0-0-0---0-0-0-0---0-0-0-------------------|
 Eb|----------------------------------------------------|
 Eb|----------------------------------------------------|
 Bb|----------------------------------------------------|
 Gb|----------------------------------------------------|
 Db|--9-9-11--9-9-11--9-9-9-11--9-9-11------------------|
 Ab|--7-7-7---7-7-7---7-7-7-7---7-7-7-------------------|
 Eb|----------------------------------------------------|
 Eb|----------------------------------------------------|
 Bb|----------------------------------------------------|
 Gb|------------------2---------------------------------|
 Db|--2-2-4---2-2-4---2---------------------------------|
 Ab|--0-0-0---0-0-0---0---------------------------------|
 Eb|----------------------------------------------------|

 


 


 Rhythm Fig. 5


 


 

 
 Eb|----------------------------------------------------|
 Bb|----------------------------------------------------|
 Gb|----------------------------------------------------|
 Db|--------7-7---7-7---5~-5h^7p^5----------------------|
 Ab|---0--0-----0-----0------------7-6-5--3h^5p^3----3--|
 Eb|----------------------------------------------5-----|
 Eb|----------------------------------------------------|
 Bb|----------------------------------------------------|
 Gb|----------------------------------------------------|
 Db|----------------------------------------------------|
 Ab|----------------------------------------------------|
 Eb|-3-3-3-3--------------------------------------------|

 


 


 


 Solo.


 


 

 
 Eb|----------------------------------------------------|
 Bb|-----------9------7-------9-------7------9----------|
 Gb|----------------------------------------------------|
 Db|----------/9-----/7------/9------/7-----/9----------|
 Ab|----------------------------------------------------|
 Eb|----------------------------------------------------|
 Eb|--------------5-------------------------------------|
 Bb|------------5-----8b---8b--r8-----------------------|
 Gb|-------7b-----------------------5b^-----------------|
 Db|-------------------------------------7~-------------|
 Ab|----------------------------------------------------|
 Eb|----------------------------------------------------|
 Eb|----------------------------------------------------|
 Bb|-----------9------7-------9-------7------9----------|
 Gb|----------------------------------------------------|
 Db|----------/9-----/7------/9------/7-----/9----------|
 Ab|----------------------------------------------------|
 Eb|----------------------------------------------------|
 Eb|------------5---------------------------------------|
 Bb|------------5---8p^5---8b--8--8-8-8r8---------------|
 Gb|-------7b-------------------------------5b^---------|
 Db|---------------------------------------------7~-----|
 Ab|----------------------------------------------------|
 Eb|----------------------------------------------------|
 Eb|-------10-10-------14------13-----12----------------|
 Bb|-------10-10-------13------12-----11----------------|
 Gb|---12b---------/14-----\13-----\12----10(11)--------|
 Db|----------------------------------------------------|
 Ab|----------------------------------------------------|
 Eb|----------------------------------------------------|
 <----3x-->
 Eb|----------------------------------------------------|
 Bb|-------------------8p^7p^5--------------------------|
 Gb|--------2-------2----------8p^7p^5------8p^7p^5~----|
 Db|--2h^4-----2h^4--------------------7p^5-------------|
 Ab|----------------------------------------------------|
 Eb|----------------------------------------------------|
 Eb|-------12-12-------16------15-----14----------------|
 Bb|-------12-12-------15------14-----13----------------|
 Gb|---14b---------/16-----\15-----\14----12(13)--------|
 Db|----------------------------------------------------|
 Ab|----------------------------------------------------|
 Eb|----------------------------------------------------|
 <----3x-->
 Eb|----------------------------------------------------|
 Bb|----------14-14-------------------------------------|
 Gb|----------14-14-------------------------------------|
 Db|---14h^16-------------------------------------------|
 Ab|----------------------------------------------------|
 Eb|----------------------------------------------------|
 <-----3x----->

 


 


 Outro Solo (right channel)


 


 

 
 Eb|----------------------------------------------------|
 Bb|----------------------------------------------------|
 Gb|-7b-7b~-7-7-7-7--5~--------17-----17--17b^~---------|
 Db|-----------------------/19----19--------------------|
 Ab|----------------------------------------------------|
 Eb|----------------------------------------------------|
 Eb|---------------------17-----------------------------|
 Bb|-------------------------20p^17-----20b--20b-20b----|
 Gb|--17b-r17-------19b---------------------------------|
 Db|----------19~---------------------------------------|
 Ab|----------------------------------------------------|
 Eb|----------------------------------------------------|
 <------6x----->
 Eb|---------------------17+----------------------------|
 Bb|-20b-20b-20b--20b~---20b+---------------------------|
 Gb|----------------------------------------------------|
 Db|----------------------------------------------------|
 Ab|----------------------------------------------------|
 Eb|----------------------------------------------------|

 


 + = Tremolo Pick


 


 

 
 Eb|-20p^17-----17--20b~--------------------------------|
 Bb|---------20-----------20b~--17h^20p^20--------------|
 Gb|---------------------------------------19-17h^19p^17|
 Db|----------------------------------------------------|
 Ab|----------------------------------------------------|
 Eb|----------------------------------------------------|
 <----5x------>
 Eb|----------------------------------------------------|
 Bb|----------------------------------------------------|
 Gb|----------------------------------------------------|
 Db|-19--17h^19p^17-------------------------------------|
 Ab|----------------19-18h^19p^17/25h^17----------------|
 Eb|-------------------------------------19~------------|
 Eb|----------------------------------------------------|
 Bb|----------------------------------------------------|
 Gb|--7b~--7-7-7---7p^5~--------------------------------|
 Db|----------------------------------------------------|
 Ab|----------------------------------------------------|
 Eb|----------------------------------------------------|

 


 


 Outro Solo (left channel)


 


 

 
 Eb|-----5----------------------------------------------|
 Bb|-----8b-----------------5-------------10-10---------|
 Gb|----------5~------------7b~-------/11---------------|
 Db|----------------------------------------------------|
 Ab|----------------------------------------------------|
 Eb|----------------------------------------------------|
 Eb|-----------------------------------------12b^^~~----|
 Bb|-------10--12b-12b-12b--12b-r12p^10-----------------|
 Gb|---11--------------------------------11-------------|
 Db|----------------------------------------------------|
 Ab|----------------------------------------------------|
 Eb|----------------------------------------------------|
 Eb|--12b^^~~--12b^^~~-12b^^--12b^^-12b^^-12b^^~--------|
 Bb|----------------------------------------------------|
 Gb|----------------------------------------------------|
 Db|----------------------------------------------------|
 Ab|----------------------------------------------------|
 Eb|----------------------------------------------------|
 Eb|-12-11-10-8-----------------------------------------|
 Bb|-------------10b--10-10~~---------------------------|
 Gb|----------------------------------------------------|
 Db|----------------------------------------------------|
 Ab|----------------------------------------------------|
 Eb|----------------------------------------------------|


Important: The song above is NOT stored on the Chordie server. The original song is hosted at www.xguitar.com. Chordie works as a search engine and provides on-the-fly formatting. Chordie does not index songs against artists'/composers' will. To remove this song please click here.

This song is displayed as text-only. Transposing and tuning is only available for chordpro-songs.
Rate #4 of 6 versions

Jango Player

Login - add to songbook

SHARE PAGE  




You need to log in to post comments