Guitar Tabs, Chords and Lyrics
Major upgrade!! After one year development the new version of Chordie is now online! Please give feedback.


Do You Love Me?   KISS

 
 --------------

 


 


 transcribed by Mark Perillo (mark@kisstabs.com)


 


 Eb Tuning


 


 Key:


 / = slide up


 \ = slide down


 b = bend (whole step)


 b^ = bend (1/2 step)


 pb = pre-bend


 r = release-bend


 h^ = hammer-on


 p^ = pull-off


 ~ = Vibrato


 * = Natural Harmonic




 ** = Artificial Harmonic


 x = Muted String (Palm Muting)


 X = Muted String (Fretboard Muting)


 


 Rhythm Fig. 1


 end 1.


 

 
 Eb|-----0--------0----------------0--|-----------------|
 Bb|--2--0---2-2--0---2-2-3---2-2--0--|--9--11-11-------|
 Gb|--2--1---2-2--1---2-2-2---2-2--1--|--9--11-11-------|
 Db|--2--2---2-2--2---2-2-0---2-2--2--|--9-/11-11-------|
 Ab|--0--2---0-0--2---0-0-----0-0--2--|--7-/9--9--------|
 Eb|-----0--------0----------------0--|--0--------------|

 


 


 Rhythm Fig. 2


 


 

 
 Eb|-2-------------------2------------------------------|
 Bb|-2--4--4--5--4--4----2--4--4--5---------------------|
 Gb|-2--4--4--4--4--4----2--4--4--4------2--2-----------|
 Db|-4--4--4--2--4--4----4--4--4--2------2--2-----------|
 Ab|-4--2--2-----2--2----4--2--2---------0--0-----------|
 Eb|-2-------------------2--------------------4-2-0-----|
 Eb|-2-------------------2------------------------------|
 Bb|-2--4--4--5--4--4----2--4--4--5--4-4-4-4-4-4--2-----|
 Gb|-2--4--4--4--4--4----2--4--4--4--4-4-4-4-4-4--2-----|
 Db|-4--4--4--2--4--4----4--4--4--2--4-4-4-4-4-4--2-----|
 Ab|-4--2--2-----2--2----4--2--2-----2-2-2-2-2-2--0-----|
 Eb|-2-------------------2------------------------------|

 


 Riff 1. (Both Guitars)


 


 

 
 Eb|----------------------------------------------------|
 Bb|---0--0--0--0---0---0--0--0--0--0---0---------------|
 Gb|--8--6--4--6--/8--6---8--6--4--6--/8--9-------------|
 Db|----------------------------------------------------|
 Ab|----------------------------------------------------|
 Eb|----------------------------------------------------|
 <-------3x------->

 


 


 Riff 1a.


 


 

 
 Eb|----------------------------------------------------|
 Bb|--9---7--6--7---9---7---9---7--6--7---11-11--11-----|
 Gb|--10--8--6--8--/10--8---10--8--6--8---11-11--11-----|
 Db|--------------------------------------11-11--11-----|
 Ab|--------------------------------------9--9---9------|
 Eb|----------------------------------------------------|

 


 <ride>


 


 Riff 1b.


 


 

 
 Eb|--------------------------------------2-2--2--------|
 Bb|--6---------------------6-------------2-2--2--------|
 Gb|--6---------------------6-------------2-2--2--------|
 Db|--6---------------------6-------------4-4--4--------|
 Ab|--4---------------------4-------------4-4--4--------|
 Eb|--------------------------------------2-2--2--------|

 


 <ride>


 Riff 2.


 


 

 
 Eb|--0-----0-----0--------------0-----0----0-----------|
 Bb|---0-----0-----0-------2-2----0-----0----0------2-2-|
 Gb|-----13----11----9--8--2-2------11----9----7--6-2-2-|
 Db|-----14----13----11-9--2-2------12----11---9--7-2-2-|
 Ab|-----------------------0-0----------------------0-0-|
 Eb|-0--------------------------0-----------------------|
 <------------2x--------->

 


 


 end. 1


 

 
 Eb|--0-----0-----0------------|--0---------------------|
 Bb|---0-----0-----0-------2-2-|--0---------------------|
 Gb|-----13----11----9--8--2-2-|--1---------------------|
 Db|-----14----13----11-9--2-2-|--2---------------------|
 Ab|-----------------------0-0-|--2---------------------|
 Eb|-0-------------------------|--0---------------------|


Important: The song above is NOT stored on the Chordie server. The original song is hosted at www.xguitar.com. Chordie works as a search engine and provides on-the-fly formatting. Chordie does not index songs against artists'/composers' will. To remove this song please click here.

This song is displayed as text-only. Transposing and tuning is only available for chordpro-songs.
Rate #1 of 1 versions

Login - add to songbook

SHARE PAGE  




You need to log in to post comments