Guitar Tabs, Chords and Lyrics
Major upgrade!! After one year development the new version of Chordie is now online! Please give feedback.


Baby Driver  KISS

Baby Driver by KISS
From the album Rock And Roll Over
 
 --------------------------------------------------------------------

"Go baby driver..."
 
 e:---------------------------------------------------------------------------|
 B:---------------------------------------------------------------------------|
 G:-------------------------------------5--3----------------------------------|
 D:---5--5--5--5--5--5--5--5--5--5--5---5--3----5--5--5--5--5--5--5--5--5--5--|
 A:---5--5--5--5--5--5--5--5--5--5--5---3--1----5--5--5--5--5--5--5--5--5--5--|
 E:---3--3--3--3--3--3--3--3--3--3--3-----------3--3--3--3--3--3--3--3--3--3--|

rhythm 1 repeat pattern
fill 1
 
 e:-|-----------------|
 B:-|-----------------|

G:-|--5/5b/5/5b/5/5b/|
 
 D:-|-----------------|
 A:-|-----------------|
 E:-|-----------------|

|
fill 2
 
 e:---------------------------------------------------------------------------|
 B:-------5-3-------5-3--------------------5-3----5b/5-3---------------------6|
 G:---xxxx5-3---xxxx5-3-5-3--5~--3~----xxxx5-3----5b/5-3-5--5-3-----5~--3~---5|
 D:---------------------5-3--5~--3~----------------------5-----5-3--5~--3~---3|
 A:--------------------------3~--1~---------------------------------3~--1~----|
 E:---------------------------------------------------------------------------|
 e:-----------------------------|
 B:-6-6-6-6-6-6-6-6-6-6-6-6-7-8-|
 G:-5-5-5-5-5-5-5-5-5-5-5-5-6-7-|
 D:-3-3-3-3-3-3-3-3-3-3-3-3-4-5-|
 A:-----------------------------|
 E:-----------------------------|

verse 2
 
 e:---------------------------------------------------------------------------|
 B:---------------------------------------------18--18~---18--18-/18----------|
 G:----------------5/5b/5/5b/5/5b---------------17b-17b~--17b-17b/17-15------5|
 D:--------------------------------------------------------------------17----5|
 A:---5-5-5-5-5-5------------------5-5-5-5-5-5-------------------------------3|
 E:---3-3-3-3-3-3------------------3-3-3-3-3-3--------------------------------|

etc
 
 e:---------------------------------------------------------------------------|
 B:---------5-3-5--5-3---5-3-5--5-3--------------3~---------------------------|
 G:~---3~---5-3-5--5-3---5-3-5--5-3------5~--3~--3~--------------3--5b-5-3---3|
 D:~---3~---------------------------5-3--5~--3~-----5-5------3-5-----------3--|
 A:~---1~--------------------------------3~--1~----------3-5------------------|
 E:---------------------------------------------------------------------------|

[C] [Bb] [A] [Ab] [G]  
 
 e:---------------------------------------------------------------------------|
 B:-----------5--3---5--3---5b/5--3/5/3---------------------------------------|
 G:/5~--3~----5--3---5--3---5b/5--3/5/3-5-3----------------------------5----3-|
 D:-5~--3~------------------------------5-3--3/5~--3~--2~--1~--0/12----5----3-|
 A:-3~--1~-------------------------------------------------------------3----1-|
 E:---------------------------------------------------------------------------|

"Go baby driver.."
 
 e:--------------------------------------------------------------------------|
 B:--------------------------------------------------------------------------|
 G:3---------------5---5-5----------5----3-3------------5-5----5/7-7-7-7-7-7-|
 D:3---5-----------3---5-5---5------5----3-3---5----3---5-5----5/7-7-7-7-7-7-|
 A:1---5---------------3-3---5------3----1-1---5----3---3-3----3/5-5-5-5-5-5-|
 E:----3---------------------3-----------------3----1------------------------|
 e:---------------------------------------------|
 B:----15~---------15---13---11---8----6~---8~--|
 G:----17b(19)~----17b--15b--13b--10b--8b~--10b~|
 D:---------------------------------------------|
 A:---------------------------------------------|
 E:---------------------------------------------|


Important: The song above is NOT stored on the Chordie server. The original song is hosted at www.xguitar.com. Chordie works as a search engine and provides on-the-fly formatting. Chordie does not index songs against artists'/composers' will. To remove this song please click here.

Text color:
Chord color:
Chord grids: 
Font size:    
Page size: 

A Ab Bb C G
Rate #4 of 5 versions

Jango Player

Login - add to songbook

SHARE PAGE  




You need to log in to post comments