Guitar Tabs, Chords and Lyrics
Major upgrade!! After one year development the new version of Chordie is now online! Please give feedback.


Suck   Kittie

 
 ------------------------------------------------------------------------------- 

 


 Suck - Kittie


 

 
 ------------------------------------------------------------------------------- 

 


 By: Slippy Jones


 Tuning:


 6=C 3=F


 5=G 2=A


 4=C 1=D


 


 Intro-Dist.


 [3] [3]  

 
 d|-------------------------|-----------------------|---------------------------|
 A|-------------------------|-----------------------|---------------------------|
 F|-------------------------|-----------------------|---------------------------|
 C|-0-6-0-7-8-0-6-0-6-0-7-8-|-0-6-0-7-8-0-6-0-6-7-8-|---------------------------|
 G|-0-6-0-7-8-0-6-0-6-0-7-8-|-0-6-0-7-8-0-6-0-6-7-8-|---------------------------|
 C|-0-6-0-7-8-0-6-0-6-0-7-8-|-0-6-0-7-8-0-6-0-6-7-8-|---------------------------| 

 


 pm.....................


 Verse Pre-Chorus


 with effect 9


 

 
 d|-------------|--------------------------------------------------------------|
 A|-------------|--------------------------------------------------------------|
 F|-9--------12-|--------------------------------------------------------------|
 C|-------------|-0-2-0-2-0-2-------------0-2-0-2-0-3--------------------------|
 G|-7--------10-|-0-2-0-2-0-2-------------0-2-0-2-0-3--------------------------|
 C|-------------|-0-2-0-2-0-2--0000-0000--0-2-0-2-0-3--------------------------| 

 


 pm.......


 Chorus "...believe me when i say..."


 [6]  

 
 d|-----------------------------|----------------------------------------------|
 A|-----------------------------|----------------------------------------------|
 F|-----------------------------|----------------------------------------------|
 C|-0-6-0-7-8-0-6-0-6-0-7-8-8-8-|----------------------------------------------|
 G|-0-6-0-7-8-0-6-0-6-0-7-8-8-8-|----------------------------------------------|
 C|-0-6-0-7-8-0-6-0-6-0-7-8-8-8-|----------------------------------------------| 

 


 Breakdown


 

 
 d|--------|-------------------------------------------------------------------|
 A|--------|-------------------------------------------------------------------|
 F|--------|-------------------------------------------------------------------|
 C|-9~-----|-------------------------------------------------------------------|
 G|--------|-------------------------------------------------------------------|
 C|-7~-----|-------------------------------------------------------------------| 

 


 Outro "...Fuck You..."


 [9]  

 
 d|---------------------|------------------------------------------------------|
 A|---------------------|------------------------------------------------------|
 F|---------------------|------------------------------------------------------|
 C|-0-0-0-6-0-0-0-0-8-7-|-7~-(7)*----------------------------------------------|
 G|-0-0-0-6-0-0-0-0-6-5-|-5~-(5)-----------------------------------------------|
 C|-0-0-0-6-0-0-0-0-----|------------------------------------------------------| 


Important: The song above is NOT stored on the Chordie server. The original song is hosted at www.xguitar.com. Chordie works as a search engine and provides on-the-fly formatting. Chordie does not index songs against artists'/composers' will. To remove this song please click here.

This song is displayed as text-only. Transposing and tuning is only available for chordpro-songs.
Rate #2 of 3 versions

Jango Player

Login - add to songbook

SHARE PAGE  



You need to log in to post comments