Guitar Tabs, Chords and Lyrics
Major upgrade!! After one year development the new version of Chordie is now online! Please give feedback.


Magic Theatre  Kula Shaker

Intro
 
 e --4-3-4-3-4-3- -4-3-4-3-4-3- --- --- --- ------- --- ----
 B -------------- ------------- -4- --- --- -7----- -4- -4--
 G -------------- ------------- --- --- -6- -----6- --- ----
 D -------------- ------------- --- --- --- ------- --- ----
 A -------------- ------------- --- --- --- ------- --- ----
 E -------------- ------------- --- --- --- ------- --- ----
 e -------------- ------------- ------------- --------------
 B --------4---4- -7-------4--- -4-------4--- -4---7---4----
 G --6-------6--- -----------6- -----------6- -----------6--
 D -------------- ------------- ------------- --------------
 A -------------- ------------- ------------- --------------
 E -------------- ------------- ------------- --------------
 e -------------- ------------- -------------
 B -------------- -4----------- -------------
 G --6-------6-3- ------------- -6-----------
 D -------------- -----------6- -------------
 A -------------- ------------- -------------
 E -------------- ------------- -------------

[C#m]  
[C#m] [G#m] [C#m] [G#m]  
[F#m] [G#] [A] [G#]  
[C#m]  
[C#m]So I lay [G#m]my head to rest
[C#m]All alone[G#m] it seems,
[F#m]There my [G#]guide is
[A]waiting I[G#]n a world of dreams
[C#m]  
[C#m] [G#m] [C#m] [G#m]  
[F#m] [G#] [A] [G#]  
[D] [G#] [D] [G#]  
[D#]  

Important: The song above is NOT stored on the Chordie server. The original song is hosted at www.xguitar.com. Chordie works as a search engine and provides on-the-fly formatting. Chordie does not index songs against artists'/composers' will. To remove this song please click here.

Text color:
Chord color:
Chord grids: 
Font size:    
Page size: 

A C#m D D# F#m G# G#m
Rate #1 of 1 versions

Jango Player

Login - add to songbook

SHARE PAGE  



You need to log in to post comments