Guitar Tabs, Chords and Lyrics
Major upgrade!! After one year development the new version of Chordie is now online! Please give feedback.


Time After Time   Labyrinth

 
 |-------------------------------------------------|gtr.1
 |-------------------------------------------------|
 |-------------------------------------------------|
 |-------------------------------------------------|
 |-0-0-0-0-0-0-7-0-0-0-0-0-8-0-0-0-0-0-5-3-2-0-2---|
 |-----------------------------------------------3-|

 


 | |


 | |


 

 
 |-------------------------------------------------|gtr.2
 |-------------------------------------------------|
 |-------------------------------------------------|
 |-------------------------------------------------|
 |-0-0-0-0-0-0-3-0-0-0-0-0-5-0-0-0-0-0-5-3-2-0-2---|
 |-----------------------------------------------3-|

 


 


 


 [1] [2] [3] [4] [1] [2] [3] [4]  

 
 |-------------------------------------------------|gtr.1
 |-------------------------------------------------|
 |-------------------------------------------------|
 |-------------------------------------------------|
 |-0-0-0-0-0-0-7-0-0-0-0-0-5-----------3-3-2-------|
 |-------------------------3-----------------3-----|

 


 | |


 | |


 

 
 |-------------------------------------------------|gtr.2
 |-------------------------------------------------|
 |-------------------------------------------------|
 |-------------------------------------------------|
 |-0-0-0-0-0-0-3-0-0-0-0-0-5-----------3-3-2-------|
 |-------------------------3-----------------3-----|

 


 


 


 [1] [2] [3] [4] [1] [2] [3] [4]  

 
 |-------------------------------------------------|gtr.1
 |-------------------------------------------------|
 |-------------------------------------------------|
 |-------------------------------------------------|
 |-0-0-0-0-0-0-7-0-0-0-0-0-8-0-0-0-0-0-5-3-2-0-2---|
 |-----------------------------------------------3-|

 


 | |


 | |


 

 
 |-------------------------------------------------|gtr.2
 |-------------------------------------------------|
 |-------------------------------------------------|
 |-------------------------------------------------|
 |-0-0-0-0-0-0-3-0-0-0-0-0-5-0-0-0-0-0-5-3-2-0-2---|
 |-----------------------------------------------3-|

 


 


 


 [1] [2] [3] [4] [1] [2] [3] [4]  

 
 |-------------------------------------------------|gtr.1
 |-------------------------------------------------|
 |-------------------------------------------------|
 |-------------------------5-3-2-------------------|
 |-0-0-0-0-0-0-7-0-0-0-0-0-------5-3-2-0-----------|
 |-------------------------------------------------|

 


 | |


 | |


 

 
 |-------------------------------------------------|gtr.2
 |-------------------------------------------------|
 |-------------------------------------------------|
 |-------------------------5-3-2-------------------|
 |-0-0-0-0-0-0-3-0-0-0-0-0-------5-3-2-0-----------|
 |-------------------------------------------------|

 


 


 


 End of Riff 1


 


 


 Riff 2


 


 

 
 |--------------------------------------------|gtr.1
 |--------------------------------------------|
 |--------------------------------------------|
 |-3-----3-----------------------------3------|
 |-3-----3-----8-888-7-7-7-5--7--8-10--3--8-7-|
 |-1-111-1-111-------------------------1------|

 


 | pm. pm. pm. pm... |


 


 

 
 |--------------------------------------------|gtr.2
 |--------------------------------------------|
 |--------------------------------------------|
 |-3-----3-----------2-----------------3--7-5-|
 |-3-----3-----5-555-3-333-2--3--5--7--3--5-3-|
 |-1-111-1-111-------------------------1------|

 


 pm. pm. pm. pm.


 


 

 
 |-------------------------------------------------|gtr.1
 |-------------------------------------------------|
 |-------------------------------------------------|
 |-------------------5-5-5-7-7-7-5-5-5-------------|
 |-5-5-5-7-7-7-8-8-8-------------------8-8-8-7-7-7-|
 |-------------------------------------------------|

 


 |pm. . . . . . . . . . . . . . . . . . . . . . . .|


 |


 

 
 |-------------------------------------------------|gtr.2
 |-------------------------------------------------|
 |-------------------------------------------------|
 |-------------------2-2-2-3-3-3-2-2-2-------------|
 |-2-2-2-3-3-3-5-5-5-------------------5-5-5-3-3-3-|
 |-------------------------------------------------|

 


 |pm. . . . . . . . . . . . . . . . . . . . . . . . |


 


 

 
 |--------------------------------------------|gtr.1
 |--------------------------------------------|
 |--------------------------------------------|
 |-3-----3-----------------------------3------|
 |-3-----3-----8-888-7-7-7-5--7--8-10--3--8-7-|
 |-1-111-1-111-------------------------1------|

 


 | pm. pm. pm. pm... |


 | |


 

 
 |--------------------------------------------|gtr.2
 |--------------------------------------------|
 |--------------------------------------------|
 |-3-----3-----------2-----------------3--7-5-|
 |-3-----3-----5-555-3-333-2--3--5--7--3--5-3-|
 |-1-111-1-111-------------------------1------|

 


 pm. pm. pm. pm.


 


 


 

 
 |-12----------13----------15-------------17-|gtr.1 & 2
 |---12------12--13------13--15---------17---|
 |-----12--12------14--14------16-----17-----|
 |-------14----------15----------17/19-------|
 |-------------------------------------------|
 |-------------------------------------------|

 


 


 End Of Riff 2 (Pre-chorus)


 


 


 Riff 3a (Chorus)


 


 

 
 |---------------------------------------|gtr.1
 |---------------------------------------|
 |-2----7-------------------------2----7-|
 |-2----7----5----------3----5----2----7-|
 |-0----5----5----7--5--3----5----0----5-|
 |-----------3----------1----3-----------|

 


 | |


 | |


 

 
 |---------------------------------------|gtr.2
 |---------------------------------------|
 |-2----7-------------------------2----7-|
 |-2----7----5----5--5--3----5----2----7-|
 |-0----5----5----3--2--3----5----0----5-|
 |-----------3----------1----3-----------|

 


 


 End of Riff 3a


 


 Riff 3b


 


 

 
 |-----------------------------------------------------------------------------|gtr.1
 |-----------------------------------------------------------------------------|
 |-----------------------------------------------------------------------------|
 |---------------------------------12-12-10-9-12-12-10-9-12-12-10-9-12-12-10-9-|
 |-8-8-7-5-8-8-7-5-8-8-7-5-8-8-7-5---------------------------------------------|
 |-----------------------------------------------------------------------------|

 


 |pm. . . . . . . . . . . . . . . . . . . . . . . . . . . . . . . . . . . . . .| | |


 | |


 

 
 |-----------------------------------------------------------------------------|gtr.2
 |-----------------------------------------------------------------------------|
 |-----------------------------------------------------------------------------|
 |-----------------------------------------------------------------------------|
 |-8-8-7-5-8-8-7-5-8-8-7-5-8-8-7-5-10-10--8-7-10-10--8-7-10-10--8-7-10-10--8-7-|
 |-----------------------------------------------------------------------------|

 


 pm. . . . . . . . . . . . . . . . . . . . . . . . . . . . . . . . . . . . . . |


 


 


 

 
 |-------------------5/12\8-7-5----------------------------|gtr.1
 |-----------------5------------5--------------------------|
 |---------------5----------------5-------------2----------|
 |-------7-----7--------------------3----5------2----------|
 |-----7-----7----------------------3----5--3-2-0----------|
 |-5-8-----8------------------------1----3-----------------|

 


 |pm. . . . . . . pm. pm. |


 | |


 

 
 |---------------------5-----------------------------------|gtr.2
 |-------------------5----5--------------------------------|
 |-----------------5--------5-------------------2----------|
 |-------7-------7------------7-----3----5------2----------|
 |-----7-------7----------------7---3----5--3-2-0----------|
 |-5-8-----5-8--------------------8-1----3-----------------|

 


 pm. . . . . . . pm. . . . pm.


 


 End of Riff 3b


 


 


 Riff 4


 


 

 
 |----------------------|gtrs.1&2
 |----------------------|
 |-2--------------7--5--|
 |-2----5----3----7--5--|
 |-0----5----3----5--3--|
 |------3----1----------|
 |----------------------------------------------------------|gtrs.1&2
 |----------------------------------------------------------|
 |-2--------------------------------------------------7--9--|
 |-2----------------5----------------3----------------7--9--|
 |-0-00000000000000-5----------------3----------------5--7--|
 |------------------3-33333333333333-1-11111111111111-------|
 |----------------------------------------------------------|gtrs.1&2
 |----------------------------------------------------------|
 |-2--------------------------------------------------7--5--|
 |-2----------------5----------------3----------------7--5--|
 |-0-00000000000000-5----------------3----------------5--3--|
 |------------------3-33333333333333-1-11111111111111-------|
 |----------------------------------------------------------|gtrs.1&2
 |----------------------------------------------------------|
 |-2--------------------------------------------------7--9--|
 |-2----------------5----------------3----------------7--9--|
 |-0-00000000000000-5----------------3----------------5--7--|
 |------------------3-33333333333333-1-11111111111111-------|
 |---------------------|gtrs.1&2
 |---------------------|
 |---------------5-----|
 |-3-----333-----5-----|
 |-3-----333-----3-----|
 |-1-----111-----------| 

 


 


 End of Riff 4


 


 Riff 5


 


 pickscratch


 

 
 |--------------------------------------------------------------|gtrs.1&2
 |--------------------------------------------------------------|
 |-2------------------------------------------------------------|
 |-2-------------------------------------------------------7----|
 |-0---///////////-0000000000000000-5----------------------5----|
 |----------------------------------3-----1111111111111111------|
 |----------------------------------------------------------|gtrs.1&2
 |----------------------------------------------------------|
 |-2--------------------------------------------------7--5--|
 |-2----------------5----------------3----------------7--5--|
 |-0-00000000000000-5----------------3----------------5--3--|
 |------------------3-33333333333333-1-11111111111111-------| 

 


 


 keyboard solo starts


 

 
 |----------------------------------------------------------|gtrs.1&2
 |----------------------------------------------------------|
 |-2--------------------------------------------------7--9--|
 |-2----------------5----------------3----------------7--9--|
 |-0-00000000000000-5----------------3----------------5--7--|
 |------------------3-33333333333333-1-11111111111111-------|
 |----------------------------------------------------------|gtrs.1&2
 |----------------------------------------------------------|
 |-2--------------------------------------------------7--5--|
 |-2----------------5----------------3----------------7--5--|
 |-0-00000000000000-5----------------3----------------5--3--|
 |------------------3-33333333333333-1-11111111111111-------|
 |----------------------------------------------------------|gtrs.1&2
 |----------------------------------------------------------|
 |-2--------------------------------------------------7--9--|
 |-2----------------5----------------3----------------7--9--|
 |-0-00000000000000-5----------------3----------------5--7--|
 |------------------3-33333333333333-1-11111111111111-------|

 


 


 End of Riff 5


 


 


 Anders's solo (gtr. 4)


 Rhythm: Riff 1


 p h p p h p h p


 

 
 |----17-19-20-19hb-r19-17-19----19-19-20-19-17-19-17\15-17-15\12-15-12-12-|
 |-17----------------------------------------------------------------------|
 |-------------------------------------------------------------------------|
 |-------------------------------------------------------------------------|
 |-------------------------------------------------------------------------|
 |-------------------------------------------------------------------------|

 


 


 p h p p vv


 

 
 |-15-12----------12---------------------------------------12-----15-12-----15-17--\|
 |-------15-13-15----15-13-12----------------13-----12--------13---------17---------|
 |----------------------------14---------14-----14-----12---------------------------|
 |------------------------------------14--------------------------------------------|
 |----------------------------------------------------------------------------------|
 |----------------------------------------------------------------------------------|

 


 


 p p p p p p p


 

 
 |---------------------------12--12-17-15-12-17-15-12-17-15-12-17-\-|
 |--------------------13--15----------------------------------------|
 |-------------12--14-----------------------------------------------|
 |------12--14------------------------------------------------------|
 |-12-15------------------------------------------------------------|
 |------------------------------------------------------------------|

 


 


 ah ah hp ^^^^


 

 
 |-----------------------------------------------------------------|
 |----------------------------------------------------------8-8b---|
 |---------5hbr5----------7-5hbr5---------5-5-7hbr7-57577hb--------|
 |----------------------7------------------------------------------|
 |-----------------------------------------------------------------|
 |-3-5-3-5--------5-3-5------------5-3-5---------------------------|

 


 pm. . . pm. . . . pm. .


 


 T p T p h T p p h T p p ^^^^^


 

 
 |-12-8-12-5---5-8-12-8-5--5-8-12-8-5--12-15-17-----|
 |--------------------------------------------------|
 |--------------------------------------------------|
 |--------------------------------------------------|
 |--------------------------------------------------|
 |--------------------------------------------------|

 


 


 h p p p h p h ^^^^^


 

 
 |-17-172017--20-17----17--17-20-17-20----------------------|
 |------------------20-----------------20br20-17-20b-20b----|
 |----------------------------------------------------------|
 |----------------------------------------------------------|
 |----------------------------------------------------------|
 |----------------------------------------------------------|

 


 


 Olaf's solo (Gtr. 3)


 Rhythm: Riff 3a (2° time don't play the last D chord but keep the A chord)


 


 

 
 |-12--------------12--------------13--------------13---------------|
 |---13----------13--13----------13--15----------15--15----------15-|
 |-----14------14------14------14------14------14------14------14---|
 |-------14--14----------14--14----------15--15----------15--15-----|
 |---------15--------------15--------------17--------------17-------|
 |------------------------------------------------------------------|
 |-10--------------10--------------15--------------15---------------|
 |---12----------12--12----------12--17----------17--17----------17-|
 |-----12------12------12------12------17------17------17------17---|
 |-------12--12----------12--12----------17--17----------17--17-----|
 |---------10--------------10--------------15--------------15-------|
 |------------------------------------------------------------------|

 


 


 ...to be continued - I can't play this solo :-(


 


 


 Riff 6


 


 

 
 |----------------------------------------------------------------------|gtrs.1&2
 |----------------------------------------------------------------------|
 |-2--------------------------------------------------------------------|
 |-2----------------5----------------3----------------------------------|
 |-0-00000000000000-5----------------3----------------55555555-33333333-|
 |------------------3-33333333333333-1-11111111111111-------------------|
 |------------------------------------------------------------------------|gtrs.1&2
 |------------------------------------------------------------------------|
 |-2----------------------------------------------------------------------|
 |-2----------------5----------------3----------------------------------7-|
 |-0-00000000000000-5----------------3----------------55555555-77777777-7-|
 |------------------3-33333333333333-1-11111111111111-------------------5-|


Important: The song above is NOT stored on the Chordie server. The original song is hosted at www.xguitar.com. Chordie works as a search engine and provides on-the-fly formatting. Chordie does not index songs against artists'/composers' will. To remove this song please click here.

This song is displayed as text-only. Transposing and tuning is only available for chordpro-songs.
Rate #3 of 4 versions

Login - add to songbook

SHARE PAGE  




You need to log in to post comments