Guitar Tabs, Chords and Lyrics
Major upgrade!! After one year development the new version of Chordie is now online! Please give feedback.


Raven Land   Lake of Tears

 
 e [ ----------------------------------------------------------
 B [ ----------------------------------------------------------
 G [ ----------------------------------------------------------
 D [ ----------------------------------------------------------
 A [ ------5--------5------------------8--------8--7-----------
 E [ 0--5-----5--6-----5------------6-----6--8--------8--------
 e ----------------------------------------------------------
 B ----------------------------------------------------------
 G ----------------------------------------------------------
 D ----------------------------------------------5-----------
 A ------5--------5------------------8--------8--------------
 E ---5-----5--6-----5------------6-----6--8--------8--------
 e ----------------------------------------------------------
 B ----------------------------------------------------------
 G ----------------------------------------------------------
 D ----------------------------------------------------------
 A ------5--------5------------------8--------8--7-----------
 E ---5-----5--6-----5------------6-----6--8--------8--------
 e ---------------------------------------------------------]
 B ---------------------------------------------------------]
 G ---------------------------------------------------------]
 D -------------------------------------------3-----3-------]
 A ------5--------5------------------8-----3-----5----------]
 E ---5-----5--6-----5------------6-----6-------------------]

 


 


 


 BASS (low volume!):


 


 

 
 G [ ----------------------------------------------------------
 D [ ----------------------------------------------------------
 A [ ------5--------5------------------8--------8--7--3*-5*----
 E [ 0--5-----5--6-----5------------6-----6--8-----------------

 


 (* In the song this is some sort of effect, but it


 sounds right like this)


 


 

 
 G ----------------------------------------------------------
 D ---------------------------------------------5------------
 A ------5--------5-----------------8--------8-----3*-5*-----
 E ---5-----5--6-----5-----------6-----6--8------------------
 G ----------------------------------------------------------
 D ----------------------------------------------------------
 A ------5--------5-----------------8--------8--7--3*--5*----
 E ---5-----5--6-----5-----------6-----6--8------------------
 G ---------------------------------------------------------]
 D ------------------------------------------3-----3--------]
 A ------5--------5-----------------8-----3-----5-----------]
 E ---5-----5--6-----5-----------6-----6--------------------]

 


 


 Riff B:


 


 

 
 e [ ----------------------------------------------------------
 B [ ----------------------------------------------------------
 G [ ----------------------------------------------------------
 D [ ------------------------------------------5---------------
 A [ --(5)*---5--8--7--5-----------5--5--7--8-----8--7--5------
 E [ ---5--5--------------5------------------------------------

 


 (* play on A-string only the first time after the intro,


 play on E-string all other times )


 


 

 
 e ---------------------------------------------------------]
 B ---------------------------------------------------------]
 G ---------------------------------------------------------]
 D ------------------------------------3--2-X-3--2--0-------]
 A ---------5--8--7--5--------------3-----------------------]
 E ---5--5--------------5--------1--------------------------]

 


 ( X: short rest)


 


 BASS: I think the bass plays the same the guitar plays, but


 its volume is so low I can hardly hear it.


 


 Riff C (bass-interlude):


 


 

 
 G [ -----------------------------------------------------------
 D [ -----------------------------------------------------------
 A [ ---5--5--5---5--5-5---5--5--5----8--8--8---7--7--7---------
 E [ -----------------------------------------------------8--8--

 


 ( listen to the song to get the timing right)


 


 

 
 G ----------------------------------------------------------]
 D -------------------------------------------5--5--5--------]
 A ---5--5--5---5--5-5---5--5--5----8--8--8------------------]
 E -----------------------------------------------------8----]

 


 


 Riff D:


 For the guitar riffD is the same as riffB, but using distortion


 and a different rythm (listen to the song for the rythm).


 


 BASS:


 


 

 
 G [ ----------------------------------------------------------
 D [ ----------------------------------------------------------
 A [ ----------------------------------------------------------
 E [ --0--0--0--0----2--2--2--2----2--2--2--2----3--3--3--3----
 G ---------------------------------------------------------]
 D ---------------------------------------------------------]
 A ---------------------------------------------------------]
 E --0--0--0--0----2--2--2--2----2--2--2--2----0--0--0------]

 


 


 Riff E (Guitar-Solo):


 


 Sorry, I didn't figure this one out yet. I hope to send it


 in later.


 


 


 / The following is the author's own interpretation of the song, to be used -


 / for studying or private use only, removal of any part of this ten line -


 / header is illegal!!! Removal of the transcribers name or anything -


 / relevant to the transcriber is also illegal, as so is the removal of the -


 / place inwhich the tab was downloaded. Publishing as well as printing of -


 / the tab is illegal without permission of the transcriber and copyright -


 / owner of the song. Failure to apply to these laws result will in legal -


 / action from the appropriate parties. -


 


 RAVEN LAND BY LAKE OF TEARS (intro only)


 FROM THE "HEADSTONES" ALBUM


 


 Transcribed by Tomasz 'Czesiu' Ciesielski


 E-mail : czesiu@free.polbox.pl


 


 Tuning: normal (rather :-)


 


 intro (classic guitar)


 

 
 |--------------|---------------|---------------|---------------|
 |--------------|---------------|---------------|---------------|
 |--------------|---------------|---------------|---------------|
 |----2-----2---|---5------5--4-|----2-----2----|---5------5-7--|
 |--2---2-3---2-|-3---3--5------|--2---2-3---2--|-3---3--5------|
 |0-------------|---------------|0--------------|---------------|


Important: The song above is NOT stored on the Chordie server. The original song is hosted at www.xguitar.com. Chordie works as a search engine and provides on-the-fly formatting. Chordie does not index songs against artists'/composers' will. To remove this song please click here.

This song is displayed as text-only. Transposing and tuning is only available for chordpro-songs.
Rate #4 of 5 versions

Jango Player

Login - add to songbook

SHARE PAGE  




You need to log in to post comments