Guitar Tabs, Chords and Lyrics
Major upgrade!! After one year development the new version of Chordie is now online! Please give feedback.


The Faded Line  Lamb of God

Gtr I (D A D G B E) - 'Willie Adler'
Gtr II (D A D G B E) - 'Mark Morton'
Gtr III (D A D G B E) - 'Ambient guitar 1'
Gtr IV (D A D G B E) - 'Ambient guitar 2'
Q=190
[4/4] Gtrs I, II
 
 PM--| PM PM PM PM PM PM PM------| PM PM PM PM PM PM PM

S S E E E E E E E E E E E E E E E S S E E E E E E E E E E E E E E E
 
 ||--------------------|-----------------|-------------------|-----------------|
 ||o-------------------|-----------------|-------------------|-----------------|
 ||--------------------|-----------------|-------------------|-----------------|
 ||--------------------|-----------------|-------------------|-----------------|
 ||o-------9---9---9---|-9---9---9---9---|-------8---8---8---|-8---8---8---8---|
 ||--0-0-0---0---0---0-|---0---0---0---0-|-0-0-0---0---0---0-|---0---0---0---0-|

PM--| PM PM PM PM PM PM PM-
S S E E E E E E E E E E E E E E E
 
 |----------------------|-----------------|
 |----------------------|-----------------|
 |----------------------|-----------------|
 |----------------------|-----------------|
 |-------11---11---11---|-6---6---6---6---|
 |-0-0-0----0----0----0-|---0---0---0---0-|

-----| PM PM PM
S S E E E E E E E E E E E E E E E 4x
 
 |-------------------|----------------------||
 |-------------------|---------------------o||
 |-------------------|--------7-------------||
 |-------------------|-10-8-7---8-----------||
 |-------5---5---5---|------------9-10-6---o||
 |-0-0-0---0---0---0-|----------------------||

[6/4]  
 
 PM----------------------------------------------|

S S E S S E S S E S S E S S E S S E S S E S S E H
 
 ||--------------------------|------------------------------|
 ||o-------------------------|------------------------------|
 ||--------------------------|------------------------------|
 ||--------------------------|------------------------------|
 ||o-------------------------|------------------------------|
 ||--0-0-0-0-0-0-0-0-0-0-0-0-|-0-0-0-0-0-0-0-0-0-0-0-0------|

[4/4] [6/4]  
 
 PM--------------------------------------------|

S S E S S E S S E S S E S S E S S E S S E S S H +E
 
 |-------------------------|-----------------------------------|
 |-------------------------|-----------------------------------|
 |-------------------------|-----------------------------------|
 |-------------------------|-----------------------3----(3)----|
 |-------------------------|-----------------------3----(3)----|
 |-0-0-0-0-0-0-0-0-0-0-0-0-|-0-0-0-0-0-0-0-0-0-0-0-3----(3)----|

[4/4]  
 
 PM----------------------------------|

S S E S S E S S E S S E S S E S S E H
 
 |-------------------------|-------------------|
 |-------------------------|-------------------|
 |-------------------------|-------------------|
 |-------------------------|-------------------|
 |-------------------------|-------------------|
 |-3-3-3-3-3-3-3-3-3-3-3-3-|-3-3-3-3-3-3-------|
 PM----------------------------------------------|

S S E S S E S S E S S E S S E S S E S S S S E E
 
 |-------------------------|-----------------------------||
 |-------------------------|----------------------------o||
 |-------------------------|-----------------------------||
 |-------------------------|-----------------------------||
 |-------------------------|----------------------------o||
 |-3-3-3-3-3-3-3-3-3-4-4-4-|-4-4-4-7-3-0-6-3-0-3-0-0-----||

Gtr I
 
 PM----------------------|

E E E E E E E E E E E E S S S S S S E
 
 |-----------------|-------------------------------|
 |-----------------|-------------------------------|
 |-----------------|-------------------------------|
 |-----------------|-------------------------------|
 |-----------------|-------------------------------|
 |-0-0-0-0-0-0-0-0-|-0-0-0-0-19-15-0-18-15-0-15----|

Gtrs I, II
E E E E E E E E E E E E S Q..
 
 |-----------------|------------------|
 |-----------------|------------------|
 |-----------------|------------------|
 |-----------------|---------0-8------|
 |-----------------|---------0-8------|
 |-0-0-0-0-0-0-0-0-|-0-0-0-0-0-8\-----|
 PM------------------------|

E E E E E E E E E E E E S S S S S S E 4x
 
 ||--------------------|----------------------------------||
 ||o-------------------|---------------------------------o||
 ||--------------------|----------------------------------||
 ||--------------------|----------------------------------||
 ||o-------------------|---------------------------------o||
 ||--0-0-0-0--0-0-0-0--|-0-0-0-0--19-15-0-18--15-0-15-----||
 PM----------------------------------|

E S S E S S E S S E S S E S S E S S S S S S S S E 4x
 
 ||--------------------------|------------------------------------||
 ||o-------------------------|-----------------------------------o||
 ||--------------------------|------------------------------------||
 ||--------------------------|------------------------------------||
 ||o-------------------------|-----------------------------------o||
 ||--0-0-0-0-0-0-0-0-0-0-0-0-|-0-0-0-0-0-0-19-15-0-18-15-0-15-----||

Q=180
PM--| PM| PM| PM| PM| PM| PM|
S S E E S S E S S E S S E S S E S S E S S Q
 
 ||---------------------------|-------------------------|
 ||o--------------------------|-------------------------|
 ||---------------------------|-------------------------|
 ||---------------------------|-7-----------------------|
 ||o-------7-----8-----10-----|-------10-----8-----7----|
 ||--8-8-8---8-8---8-8----8-8-|---8-8----8-8---8-8------|

PM--| PM| PM| PM| PM| PM|
S S E E S S E S S E S S E S S E S S S S E S S E
 
 |-------------------------|----------------------------|
 |-------------------------|----------------------------|
 |-------------------------|----------------------------|
 |-------------------5-----|-7-----5--------------------|
 |-------7-----8-----------|-------------5h7p5-4h5p4----|
 |-5-5-5---5-5---5-5---5-5-|---5-5---5-5----------------|

Q=190
 
 PM----------------------------------|

E S S E S S E S S E S S E S S E S S S S S S S S E
 
 |-------------------------|-----------------------------------|
 |-------------------------|-----------------------------------|
 |-------------------------|-----------------------------------|
 |-------------------------|-----------------------------------|
 |-------------------------|-----------------------------------|
 |-0-0-0-0-0-0-0-0-0-0-0-0-|-0-0-0-0-0-0-19-15-0-18-15-0-15----|
 PM----------------------------------|

E S S E S S E S S E S S E S S E S S S S S S S S E
 
 |-------------------------|------------------------------------||
 |-------------------------|-----------------------------------o||
 |-------------------------|------------------------------------||
 |-------------------------|------------------------------------||
 |-------------------------|-----------------------------------o||
 |-0-0-0-0-0-0-0-0-0-0-0-0-|-0-0-0-0-0-0-19-15-0-18-15-0-15-----||

Q=190
S S S S S S S S H S S S S S S S S H S S S S S S S S H
 
 ||-----------------------|---------------------|-------------------|
 ||o----------------------|---------------------|-------------------|
 ||-----------------------|---------------------|-------------------|
 ||-----------------------|---------------------|-------------------|
 ||o-0-0-0-0-0-0-0-0------|-0-0-0-0-0-0-0-0-----|-0-0-0-0-0-0-0-0---|
 ||--0-0-0-0-0-0-0-0------|-0-0-0-0-0-0-0-0-----|-0-0-0-0-0-0-0-0---|

S S S S S S S S S S S S S S E
 
 |-----------------------------------||
 |----------------------------------o||
 |-----------------------------------||
 |-----------------------------------||
 |-0-0-0-0-0-0-0-0-2-0-2-2-2-2------o||
 |-0-0-0-0-0-0-0-0-2-0-2-2-2-2-------||

Q=190
Gtr I
S S S S S S S S H
 
 ||---------------------------|
 ||o--------------------------|
 ||---------------------------|
 ||---------------------------|
 ||o-0-0-0-0--0--0--0--0------|
 ||--0-0-0-0--0--0--0--0------|

|
| Gtr II
| H E E E E
 
 ||---------------------------|
 ||o--------------------------|
 ||---------------------------|
 ||---------------------------|
 ||o--------------------------|
 ||----------12h13-12h13------|

S S S S S S S S H S S S S S S S S H
 
 |---------------------------|-----------------------|
 |---------------------------|-----------------------|
 |---------------------------|-----------------------|
 |---------------------------|-----------------------|
 |--0-0--0--0-0--0--0--0-----|-0-0-0-0--0--0--0--0---|
 |--0-0--0--0-0--0--0--0-----|-0-0-0-0--0--0--0--0---|

|
| ~~
| Q E Q E E E H E E E E
 
 |---------------------------|-----------------------|
 |---------------------------|-----------------------|
 |---------------------------|-----------------------|
 |---------------------------|-----------------------|
 |---------------------------|-----------------------|
 |-17---13p12---13-13-10-----|---------12h13-12h13---|

Gtr I
S S S S S S S S H
 
 |------------------------------||
 |-----------------------------o||
 |------------------------------||
 |------------------------------||
 |--0-0--0--0-0--0-0--0--------o||
 |--0-0--0--0-0--0-0--0---------||

|
| Gtr II
| ~~
| Q E Q E E E
 
 |------------------------------||
 |-----------------------------o||
 |------------------------------||
 |------------------------------||
 |-----------------------------o||
 |-17---13-12---13---10---------||

Q=190
Gtr I
S S S S S S S S H
 
 ||---------------------------|
 ||o--------------------------|
 ||---------------------------|
 ||---------------------------|
 ||o-0-0-0-0--0--0--0--0------|
 ||--0-0-0-0--0--0--0--0------|

|
| Gtr II
| H E E E E
 
 ||---------------------------|
 ||o--------------------------|
 ||---------------------------|
 ||---------------------------|
 ||o--------------------------|
 ||----------12h13-12h13------|

|
| Gtr III
| H E E E E
 
 ||---------------------------|
 ||o--------------------------|
 ||---------------------------|
 ||---------------------------|
 ||o---------12h13-12h13------|
 ||---------------------------|

S S S S S S S S H S S S S S S S S H
 
 |---------------------------|-----------------------|
 |---------------------------|-----------------------|
 |---------------------------|-----------------------|
 |---------------------------|-----------------------|
 |--0-0--0--0-0--0--0--0-----|-0-0-0-0--0--0--0--0---|
 |--0-0--0--0-0--0--0--0-----|-0-0-0-0--0--0--0--0---|

|
| ~~
| Q E Q E E E H E E E E
 
 |---------------------------|-----------------------|
 |---------------------------|-----------------------|
 |---------------------------|-----------------------|
 |---------------------------|-----------------------|
 |---------------------------|-----------------------|
 |-17---13p12---13-13-10-----|---------12h13-12h13---|

|
| ~~
| Q E Q E E E H E E E E
 
 |---------------------------|-----------------------|
 |---------------------------|-----------------------|
 |---------------------------|-----------------------|
 |---------------------------|-----------------------|
 |-17---13p12---13-13-10-----|---------12h13-12h13---|
 |---------------------------|-----------------------|

1. 2.
Gtr I
S S S S S S S S H S S S S S S S S S S S S S S S S
 
 |-------------------------------||-----------------------------------------|
 |------------------------------o||-----------------------------------------|
 |-------------------------------||-----------------------------------------|
 |-------------------------------||-----------------------------------------|
 |--0-0-0-0--0-0--0-0-----------o||--0-0-0-0--0-0--0-0-0-0--0-0--0-0-0-0----|
 |--0-0-0-0--0-0--0-0------------||--0-0-0-0--0-0--0-0-0-0--0-0--0-0-0-0----|

|
| Gtr II
| ~~ ~~
| Q E Q E E E Q E Q E E E
 
 |-------------------------------||-----------------------------------------|
 |------------------------------o||-----------------------------------------|
 |-------------------------------||-----------------------------------------|
 |-------------------------------||-----------------------------------------|
 |------------------------------o||-----------------------------------------|
 |-17-------13---12-----13-10----||-17-------13---12-------13---10----------|

|
| Gtr III
| ~~ ~~
| Q E Q E E E Q E Q E E E
 
 |-------------------------------||-----------------------------------------|
 |------------------------------o||-----------------------------------------|
 |-------------------------------||-----------------------------------------|
 |-------------------------------||-----------------------------------------|
 |-17-------13---12-----13-10---o||-17-------13---12-------13---10----------|
 |-------------------------------||-----------------------------------------|

Q=180
Gtrs I, II
PM| PM| PM PM| PM| PM
[E] [E] [E] [E] [E] [E] [E] [E] [E] [E] [E] [E] [E] [E] [E] [E]  
 
 ||------------------|-----------------|
 ||o-----------------|-----------------|
 ||------------------|-----------------|
 ||------8-----8---7-|-----7-----7---4-|
 ||o-----7-----7---6-|-----6-----6---6-|
 ||--9-9---9-9---9---|-8-8---8-8---8---|

1.,2.,3.
 
 PM| PM| PM PM| PM----------------|

E E E E E E E E E E E S S S S S S S S S S 4x
 
 |-----------------|-------------------------------||
 |-----------------|------------------------------o||
 |-----------------|-------------------------------||
 |-----4-----4---3-|-----3-------------------------||
 |-----6-----6---5-|-----5------------------------o||
 |-5-5---5-5---5---|-4-4---4-4-7-3-0-6-3-0-3-0-----||

4.
PM| PM----|
E E E E E S S E E
 
 |-----------------------|
 |-----------------------|
 |-7-----7---------7\----|
 |-7-----7---------7\----|
 |-5-----5---------5\----|
 |---4-4---4-0-0-0-------|

Q=190
[4/4] Gtrs I, II
 
 PM--| PM PM PM PM PM PM PM------| PM PM PM PM PM PM PM

S S E E E E E E E E E E E E E E E S S E E E E E E E E E E E E E E E
 
 |-------------------|-----------------|-------------------|------------------|
 |-------------------|-----------------|-------------------|------------------|
 |-------------------|-----------------|-------------------|------------------|
 |-------------------|-----------------|-------------------|------------------|
 |-------9---9---9---|-9---9---9---9---|-------8---8---8---|-8---8---8---8----|
 |-0-0-0---0---0---0-|---0---0---0---0-|-0-0-0---0---0---0-|---0---0---0---0--|

Gtrs I, II
PM--| PM PM PM PM PM PM PM-
S S E E E E E E E E E E E E E E E
 
 |----------------------|-----------------|
 |----------------------|-----------------|
 |----------------------|-----------------|
 |----------------------|-----------------|
 |-------11---11---11---|-6---6---6---6---|
 |-0-0-0----0----0----0-|---0---0---0---0-|

Gtr I
-----| PM PM PM
S S E E E E E E E E E E E E E E E
 
 |-------------------|-------------------|
 |-------------------|-------------------|
 |-------------------|--------7----------|
 |-------------------|-10-8-7---8--------|
 |-------5---5---5---|------------9-10-6-|
 |-0-0-0---0---0---0-|-------------------|
 PM----------------------------------|

E S S E S S E S S E S S E S S E S S S S S S S S E 4x
 
 ||--------------------------|------------------------------------||
 ||o-------------------------|-----------------------------------o||
 ||--------------------------|------------------------------------||
 ||--------------------------|------------------------------------||
 ||o-------------------------|-----------------------------------o||
 ||--0-0-0-0-0-0-0-0-0-0-0-0-|-0-0-0-0-0-0-19-15-0-18-15-0-15-----||

Q=180
PM--| PM| PM| PM| PM| PM| PM|
S S E E S S E S S E S S E S S E S S E S S Q
 
 |--------------------------|-------------------------|
 |--------------------------|-------------------------|
 |--------------------------|-------------------------|
 |--------------------------|-7-----------------------|
 |-------7-----8-----10-----|-------10-----8-----7----|
 |-8-8-8---8-8---8-8----8-8-|---8-8----8-8---8-8------|

PM--| PM| PM| PM| PM| PM|
S S E E S S E S S E S S E S S E S S S S E S S E
 
 |-------------------------|----------------------------|
 |-------------------------|----------------------------|
 |-------------------------|----------------------------|
 |-------------------5-----|-7-----5--------------------|
 |-------7-----8-----------|-------------5h7p5-4h5p4----|
 |-5-5-5---5-5---5-5---5-5-|---5-5---5-5----------------|

Q=190
 
 PM----------------------------------|

E S S E S S E S S E S S E S S E S S S S S S S S E
 
 |-------------------------|-----------------------------------|
 |-------------------------|-----------------------------------|
 |-------------------------|-----------------------------------|
 |-------------------------|-----------------------------------|
 |-------------------------|-----------------------------------|
 |-0-0-0-0-0-0-0-0-0-0-0-0-|-0-0-0-0-0-0-19-15-0-18-15-0-15----|
 PM----------------------------------|

E S S E S S E S S E S S E S S E S S S S S S S S E
 
 |-------------------------|-----------------------------------|
 |-------------------------|-----------------------------------|
 |-------------------------|-----------------------------------|
 |-------------------------|-----------------------------------|
 |-------------------------|-----------------------------------|
 |-0-0-0-0-0-0-0-0-0-0-0-0-|-0-0-0-0-0-0-19-15-0-18-15-0-15----|

Q=180
PM--| PM| PM| PM| PM| PM| PM|
S S E E S S E S S E S S E S S E S S E S S Q
 
 ||---------------------------|-------------------------|
 ||o--------------------------|-------------------------|
 ||---------------------------|-------------------------|
 ||---------------------------|-7-----------------------|
 ||o-------7-----8-----10-----|-------10-----8-----7----|
 ||--8-8-8---8-8---8-8----8-8-|---8-8----8-8---8-8------|

1. 2.
PM--| PM| PM| PM| PM| PM| [3/4] PM| PM| PM|
S S E E S S E S S E S S E S S E S S S S E S S E S S E S S E S S E
 
 |-------------------------|--------------------------||---------------------|
 |-------------------------|-------------------------o||---------------------|
 |-------------------------|--------------------------||---------------------|
 |-------------------5-----|-7-----5------------------||-----9-----10-----8--|
 |-------7-----8-----------|-------------5h7p5-4h5p4-o||-----7------7-----7--|
 |-5-5-5---5-5---5-5---5-5-|---5-5---5-5--------------||-7-7---7-7----7-7----|

Q=200
[6/4] Gtr I[4/4] [5/4]
 
 PM----| PM------| PM----| PM------------| ~~ ~~~

E E E E E E E E E E Q E E E E E E E E E E E E Q E Q.
 
 |------------------------|------------------|--------------------|
 |------------------------|------------------|--------------------|
 |------------------------|------------------|--------------------|
 |------------------------|------------------|--------------------|
 |-0-0-0-0----0-0-0-0-0---|--0-0-0-0---0-0-0-|-0-0-0-0-/5--0-/7---|
 |-0-0-0-0----0-0-0-0-0---|--0-0-0-0---0-0-0-|-0-0-0-0-/5--0-/7---|

Q=200
[6/4] Gtr I[4/4] [5/4]
 
 PM----| PM------| PM----| PM------------| ~~ ~~~

E E E E E E E E E E Q E E E E E E E E E E E E Q E Q.
 
 |------------------------|-----------------|---------------------|
 |------------------------|-----------------|---------------------|
 |------------------------|-----------------|---------------------|
 |------------------------|-----------------|---------------------|
 |-0-0-0-0----0-0-0-0-0---|-0-0-0-0---0-0-0-|-0-0-0-0-/5--0-/7----|
 |-0-0-0-0----0-0-0-0-0---|-0-0-0-0---0-0-0-|-0-0-0-0-/5--0-/7----|

|
| Gtr II
| ~~ ~~~
| W H W H Q E Q.
 
 |------------------------|-----------------|---------------------|
 |------------------------|-----------------|---------------------|
 |------------------------|-----------------|---------------------|
 |------------------------|-----------------|---------------------|
 |------------------------|-----------------|---------/5--0-/7----|
 |------------------------|-----------------|---------/5--0-/7----|

Q=200
[6/4] Gtrs I, II
 
 PM--------| PM---------|

E E E E E E E E E E Q
 
 ||---------------------------------|
 ||o--------------------------------|
 ||---------------------------------|
 ||---------------------------------|
 ||o--0-----0-0-0----0-0---0--0-0---|
 ||---0-----0-0-0----0-0---0--0-0---|

|
| Gtr III
| Q Q Q Q Q Q
 
 ||---------------------------------|
 ||o--------------------------------|
 ||---------------------------------|
 ||---7S======5------8S====7--------|
 ||o--------------------------------|
 ||---------------------------------|

|
| Gtr IV
| W +H
 
 ||---------------------------------|
 ||o--------------------------------|
 ||--18pb20r=============(18)-------|
 ||---------------------------------|
 ||o--------------------------------|
 ||---------------------------------|

[4/4] [5/4]  
 
 PM----| PM---------------| ~~~ ~~~

E E E E E E E E E E E E Q E Q. 3x
 
 |----------------------|-------------------------||
 |----------------------|------------------------o||
 |----------------------|-------------------------||
 |----------------------|-------------------------||
 |------0-0-0-0---0-0-0-|---0--0-0-0-/5----0-/7--o||
 |------0-0-0-0---0-0-0-|---0--0-0-0-/5----0-/7---||

|
| Q Q Q Q Q Q Q Q Q 3x
 
 |----------------------|-------------------------||
 |----------------------|------------------------o||
 |----------------------|-------------------------||
 |--10S===8-------8S====|===7------7S====4--------||
 |----------------------|------------------------o||
 |----------------------|-------------------------||

|
| +W +H H. 3x
 
 |----------------------|-------------------------||
 |----------------------|------------------------o||
 |-(18)-----------------|-(18)--------------------||
 |----------------------|-------------------------||
 |----------------------|------------------------o||
 |----------------------|-------------------------||

Q=200
[6/4] Gtrs I, II
 
 PM--------| PM---------|

E E E E E E E E E E Q
 
 |---------------------------------|
 |---------------------------------|
 |---------------------------------|
 |---------------------------------|
 |--0-----0-0-0----0-0---0--0--0---|
 |--0-----0-0-0----0-0---0--0--0---|

|
| Gtr III
| W Q Q
 
 |---------------------------------|
 |---------------------------------|
 |---------------------------------|
 |----------------------------13S==|
 |---------------------------------|
 |---------------------------------|

|
| W +H
 
 |---------------------------------|
 |---------------------------------|
 |-18pb20r=============(18)--------|
 |---------------------------------|
 |---------------------------------|
 |---------------------------------|

[4/4] [5/4]  
 
 PM-----| PM----------------| ~~~ ~~~

E E E E E E E E E E E E Q E Q.
 
 |-------------------------|----------------------------|
 |-------------------------|----------------------------|
 |-------------------------|----------------------------|
 |-------------------------|----------------------------|
 |------0--0-0--0----0-0-0-|---0---0-0--0-/5-----0-/7---|
 |------0--0-0--0----0-0-0-|---0---0-0--0-/5-----0-/7---|

|
| Q Q Q Q Q Q Q Q Q
 
 |-------------------------|----------------------------|
 |-------------------------|----------------------------|
 |-------------------------|----------------------------|
 |--12----12S==15---15S====|==16--16S==15-----15S==12---|
 |-------------------------|----------------------------|
 |-------------------------|----------------------------|

|
| +W +H H.
 
 |-------------------------|----------------------------|
 |-------------------------|----------------------------|
 |-(18)--------------------|-(18)-----------------------|
 |-------------------------|----------------------------|
 |-------------------------|----------------------------|
 |-------------------------|----------------------------|

Q=200
[6/4] Gtrs I, II
 
 PM--------| PM---------|

E E E E E E E E E E Q
 
 ||---------------------------------|
 ||o--------------------------------|
 ||---------------------------------|
 ||---------------------------------|
 ||o--0-----0-0-0----0-0---0--0-0---|
 ||---0-----0-0-0----0-0---0--0-0---|

|
| Gtr III
| Q Q Q Q Q Q
 
 ||---------------------------------|
 ||o--------------------------------|
 ||---------------------------------|
 ||---7S======5------8S====7--------|
 ||o--------------------------------|
 ||---------------------------------|

|
| W +H
 
 ||---------------------------------|
 ||o--------------------------------|
 ||--18pb20r=============(18)-------|
 ||---------------------------------|
 ||o--------------------------------|
 ||---------------------------------|

[4/4] [5/4]  
 
 PM----| PM---------------| ~~~ ~~~

E E E E E E E E E E E E Q E Q. 3x
 
 |----------------------|-------------------------||
 |----------------------|------------------------o||
 |----------------------|-------------------------||
 |----------------------|-------------------------||
 |------0-0-0-0---0-0-0-|---0--0-0-0-/5----0-/7--o||
 |------0-0-0-0---0-0-0-|---0--0-0-0-/5----0-/7---||

|
| Q Q Q Q Q Q Q Q Q 3x
 
 |----------------------|-------------------------||
 |----------------------|------------------------o||
 |----------------------|-------------------------||
 |--10S===8-------8S====|===7------7S====4--------||
 |----------------------|------------------------o||
 |----------------------|-------------------------||

|
| +W +H H. 3x
 
 |----------------------|-------------------------||
 |----------------------|------------------------o||
 |-(18)-----------------|-(18)--------------------||
 |----------------------|-------------------------||
 |----------------------|------------------------o||
 |----------------------|-------------------------||

Q=200
[6/4] Gtrs I, II
 
 PM--------| PM---------|

E E E E E E E E E E Q
 
 |---------------------------------|
 |---------------------------------|
 |---------------------------------|
 |---------------------------------|
 |--0-----0-0-0---0-0-0---0--0-----|
 |--0-----0-0-0---0-0-0---0--0-----|

|
| Gtr III
| W Q Q
 
 |---------------------------------|
 |---------------------------------|
 |---------------------------------|
 |-----------------------------13S=|
 |---------------------------------|
 |---------------------------------|

|
| W +H
 
 |---------------------------------|
 |---------------------------------|
 |-18pb20r==============(18)-------|
 |---------------------------------|
 |---------------------------------|
 |---------------------------------|

[4/4] [5/4]  
 
 PM------| PM-----------------| ~~~ ~~~

E E E E E E E E E E E E Q E Q.
 
 |-----------------------|-----------------------------|
 |-----------------------|-----------------------------|
 |-----------------------|-----------------------------|
 |-----------------------|-----------------------------|
 |---0--0--0-0----0--0-0-|---0--0--0-0-/5----0-/7------|
 |---0--0--0-0----0--0-0-|---0--0--0-0-/5----0-/7------|

|
| Q Q Q Q Q Q Q Q Q
 
 |-----------------------|-----------------------------|
 |-----------------------|-----------------------------|
 |-----------------------|-----------------------------|
 |--12----12S==15---15S==|==16----16S==15---15S====12--|
 |-----------------------|-----------------------------|
 |-----------------------|-----------------------------|

|
| +W +H H.
 
 |-----------------------|-----------------------------|
 |-----------------------|-----------------------------|
 |-(18)------------------|-(18)------------------------|
 |-----------------------|-----------------------------|
 |-----------------------|-----------------------------|
 |-----------------------|-----------------------------|

Q=200
[6/4] Gtrs I, II
 
 PM--------| PM------------|

E E E E E E E E E E Q
 
 ||------------------------------------|
 ||o-----------------------------------|
 ||------------------------------------|
 ||------------------------------------|
 ||o--0-----0-0-0---0-0-0---0-----0----|
 ||---0-----0-0-0---0-0-0---0-----0----|

|
| Gtr III
| W +H
 
 ||------------------------------------|
 ||o-----------------------------------|
 ||--18pb20r==============(18)---------|
 ||------------------------------------|
 ||o-----------------------------------|
 ||------------------------------------|

|
| W H
 
 ||------------------------------------|
 ||o-----------------------------------|
 ||------------------------18pb20r=====|
 ||------------------------------------|
 ||o-----------------------------------|
 ||------------------------------------|

[4/4] [5/4]  
 
 PM-----| PM------------| ~~ ~~~

E E E E E E E E E E E E Q E Q. 4x
 
 |--------------------|------------------------||
 |--------------------|-----------------------o||
 |--------------------|------------------------||
 |--------------------|------------------------||
 |---0--0-0-0---0-0-0-|-0-0-0-0-/5--0-/7------o||
 |---0--0-0-0---0-0-0-|-0-0-0-0-/5--0-/7-------||

|
| W W Q 4x
 
 |--------------------|------------------------||
 |--------------------|-----------------------o||
 |--------------------|------------------------||
 |--------------------|------------------------||
 |--------------------|-----------------------o||
 |--------------------|------------------------||

|
| Gtr IV
| +W W Q 4x
 
 |--------------------|------------------------||
 |--------------------|-----------------------o||
 |-(18)---------------|------------------------||
 |--------------------|------------------------||
 |--------------------|-----------------------o||
 |--------------------|------------------------||

Duration Legend
 
 ---------------
 W - whole; H - half; Q - quarter; E - 8th; S - 16th; T - 32nd; X - 64th; a - acciaccatura

+ - note tied to previous; . - note dotted; .. - note double dotted
Uncapitalized letters represent notes that are staccato (1/2 duration)
Irregular groupings are notated above the duration line
Duration letters will always appear directly above the note/fret number it represents the
duration for. Duration letters with no fret number below them represent rests. Multi-
bar rests are notated in the form Wxn, where n is the number of bars to rest for. Low
melody durations appear below the staff
Tablature Legend
 
 ----------------

h - hammer-on
p - pull-off
b - bend
pb - pre-bend
r - bend release (if no number after the r, then release immediately)
/\ - slide into or out of (from/to "nowhere")
s - legato slide
S - shift slide
- natural harmonic
(n) - artificial harmonic
n(n) - tapped harmonic
~ - vibrato
tr - trill
T - tap
TP - trem. picking
PM - palm muting
\n/ - tremolo bar dip; n = amount to dip
\n - tremolo bar down
n/ - tremolo bar up
/n\ - tremolo bar inverted dip
= - hold bend; also acts as connecting device for hammers/pulls
<> - volume swell (louder/softer)
x - on rhythm slash represents muted slash
o - on rhythm slash represents single note slash
Misc Legend
 
 -----------

| - bar
|| - double bar
||o - repeat start
o|| - repeat end
*| - double bar (ending)
: - bar (freetime)
$ - Segno
& - Coda
Tempo markers - = BPM(8/16=s8/s16), where s8 = swing 8ths, s16 = swing 16ths

Important: The song above is NOT stored on the Chordie server. The original song is hosted at www.xguitar.com. Chordie works as a search engine and provides on-the-fly formatting. Chordie does not index songs against artists'/composers' will. To remove this song please click here.

Text color:
Chord color:
Chord grids: 
Font size:    
Page size: 

E
Rate #2 of 3 versions

Login - add to songbook

SHARE PAGE  




You need to log in to post comments