Guitar Tabs, Chords and Lyrics
Major upgrade!! After one year development the new version of Chordie is now online! Please give feedback.


Hourglass  Lamb of God

As recorded by Lamb of God
(From the 2004 Album ASHES OF THE WAKE)
Words by Randy BlytheMusic by Lamb of God
Arranged by Lamb of God
Transcribed by Gael Pirlot (GaelPirlot@Gmail.com)
Gtr I (D A D G B E) - 'Willy Adler'
Gtr II (D A D G B E) - 'Mark Morton'
Q=200
[4/4] Gtrs I, II
 
 PM--------| PM--| PM--|

S S E S S E E E S S E E E S S E E E E E
 
 ||------------------------|-----------------------|
 ||o-----------------------|-----------------------|
 ||------------------------|-----------------------|
 ||------------------------|-----------------------|
 ||o-------------7-8-------|-8-10------------------|
 ||--0-0-0-0-0-0-----0-0-0-|------0-0-0-3-7-6-2----|
 PM--------| PM--| PM--|

S S E S S E E E S S E E E S S E E E E E
 
 |------------------------|----------------------------|
 |------------------------|----------------------------|
 |------------------------|-------------/10-9-14-13----|
 |------------------------|----------------------------|
 |-------------7-8--------|--8-12----------------------|
 |-0-0-0-0-0-0-----0-0-0--|-------0-0-0----------------|

[4/4]  
 
 PM--------| PM--| PM--|

S S E S S E E E S S E E E S S E E E E E
 
 |-----------------------|-----------------------|
 |-----------------------|-----------------------|
 |-----------------------|-----------------------|
 |-----------------------|-----------------------|
 |-------------7-8-------|-8-10------------------|
 |-0-0-0-0-0-0-----0-0-0-|------0-0-0-3-7-6-2----|

[4/4]  
 
 PM--------| PM--| PM------|

S S E S S E E E S S E E E S S E E E S S E E E E E H
 
 |-----------------------|-----------------------||--------------|
 |-----------------------|----------------------o||--------------|
 |-----------------------|-----------------------||--------------|
 |-----------------------|---------------4h5p4---||--------------|
 |-------------6-5-------|-5-4------------------o||-0-0-0--------|
 |-0-0-0-0-0-0-----0-0-0-|-----0-0-0-7-5---------||-0-0-0--------|

Q=190
 
 PM--| PM--| PM--|

E E E E E E E E S S E E E E E E E
 
 ||------------------|----------------------|
 ||o-----------------|----------------------|
 ||------------------|----------------------|
 ||------------------|-4h5p4-------8-7-6----|
 ||o-------6p5-------|----------------------|
 ||--0-0-0-----0-7-5-|-------0-0-0----------|
 PM--| PM| PM------------|

E E E E E E E E E E E E S S E E E
 
 |-----------------|----------------------|
 |-----------------|----------------------|
 |-----------------|----------------------|
 |-----------------|----------------------|
 |-------6p5-----5p|=4--------------------|
 |-0-0-0-----0-0---|---0-0-0-0-0-0-0-0----|

1.
 
 PM--| PM--| PM--| PM--| PM| PM----------|

E E E E E E E E Q E E E E E E E E E E E E E E E E E E E E E E
 
 |-----------------|------------------|-----------------|--------------------||
 |-----------------|------------------|-----------------|-------------------o||
 |-----------------|------------------|-----------------|--------------------||
 |-----------------|------------------|-----------------|--------------------||
 |-------6p5-------|------------------|-------6p5-----5p|=4-----------------o||
 |-0-0-0-----0-5-0-|-4b6r=0-0-0-8-6-5-|-0-0-0-----0-0---|---0-0-0-0-0-0-0----||

2.200
[2/4] Gtr I[4/4]
 
 PM------------| PM---|

E E E E S S E H. H S S E E E
 
 |---------|-------------------------|------------------------------|
 |---------|-------------------------|------------------------------|
 |---------|-------------------------|------------------------------|
 |---------|-------------------------|------------------------------|
 |-0-1-3-1-|-0-0-0-------------------|---------------------15-------|
 |-0-1-3-1-|-0-0-0-------------------|------------12-12-12----13----|

|
| Gtr II
 
 | PM------------| PM PM--| PM PM---|

| E E E E S S E E E E E S S E E E E E S S E E E
 
 |---------|-------------------------|------------------------------|
 |---------|-------------------------|------------------------------|
 |---------|-------------------------|------------------------------|
 |---------|-------------------------|------------------------------|
 |-0-1-3-1-|-0-0-0-13---10h12--------|-13---10h12----------15-------|
 |-0-1-3-1-|-0-0-0----0--------0-0-0-|----0-------12-12-12----13----|

PM--|
S S E H. W
 
 |-------------------------|---------------------------|
 |-------------------------|---------------------------|
 |-------------------------|---------------------------|
 |-------------------------|---------------------------|
 |-------------------------|---------------------------|
 |-0-0-0-------------------|---------------------------|

|
 
 | PM--| PM------| PM

| S S E E E E E S S E E E E E S S E E E
 
 |-------------------------|---------------------------|
 |-------------------------|---------------------------|
 |-------------------------|---------------------------|
 |-------------------------|---------------------------|
 |-------13----10h12-------|----13-12------------------|
 |-0-0-0-----0-------0-0-0-|-10-------10-9h10p9-6-5----|

Gtrs I, II
 
 PM--| PM PM--| PM PM---|

S S E E E E E S S E E E E E S S E E E
 
 ||-------------------------|------------------------------|
 ||o------------------------|------------------------------|
 ||-------------------------|------------------------------|
 ||-------------------------|------------------------------|
 ||o-------13---10h12-------|-13---10h12----------15-------|
 ||--0-0-0----0-------0-0-0-|----0-------12-12-12----13----|

[1/4]  
 
 PM--| PM------| PM

S S E E E E E S S E E E E E S S E E E 3x Q
 
 |------------------------|-------------------------||------|
 |------------------------|------------------------o||------|
 |------------------------|-------------------------||------|
 |------------------------|-------------------------||------|
 |-------13---10h12-------|----13-12---------------o||------|
 |-0-0-0----0-------0-0-0-|-10-------10-9h10p9-6-5--||------|

[4/4]  
 
 PM PM PM PM--------| PM PM PM

E E E E E E E E Q E E E E E E E E E E E Q E E Q E E Q.
 
 ||------------------|----------------|------------------|-------------|
 ||o-----------------|----------------|------------------|-------------|
 ||------------------|----------------|------------------|-------------|
 ||--8---5S7---8---5S|=7--------------|-8---5S7---10--10-|---8--8-8----|
 ||o-6---3S5---6---3S|=5--------------|-6---3S5----8---8-|---6--6-6-0--|
 ||----0-----0---0---|----0-0-0-0-0-0-|---0-----0--------|-0--------0--|
 PM PM PM PM--------| PM PM PM

E E E E E E E E Q E E E E E E E E E E E Q E E Q E E Q.
 
 |-----------------|-----------------|----------------|---------------||
 |-----------------|-----------------|----------------|--------------o||
 |-----------------|-----------------|----------------|---------------||
 |-8---5S7---8---5S|=7---------------|-8---5S7--------|---------------||
 |-6---3S5---6---3S|=5---------------|-6---3S5---3--3-|---1--1-1-0---o||
 |---0-----0---0---|-----0-0-0-0-0-0-|---0-----0-3--3-|-0-1--1-1-0----||

Q=180
 
 PM----| PM------| PM------| PM------|

[E] [E] [E] [E] [E] [E] [E] [E] [E] [E] [E] [E] [E] [E] [E] [E] [E] [E] [E] [E] [E] [E] [E] [E] [E] [E] [E] [E] [E] [E] [E] [E]  
 
 |------------------|-----------------|-----------------|--------------------|
 |------------------|-----------------|-----------------|--------------------|
 |------------------|-----------------|-----------------|--------------------|
 |-------7----------|-----7-----------|-----------------|--------------------|
 |-0-5-6------------|-5-6-------------|-5-6-4-----------|-5-6-3--------------|
 |---------0-0-0-0--|-------0-0-0-0-0-|-------0-0-0-0-0-|-------0-0-0-0-0----|
 PM------| PM------| PM------| PM--------|

E E E E E E E E E E E E E E E E E E E E E E E E E E E S S E S S E E
 
 |-----------------|-----------------|-----------------|---------------------|
 |-----------------|-----------------|-----------------|---------------------|
 |-----------------|-----------------|-----------------|---------------------|
 |-----7-----------|-----7-----------|-----------------|---------------------|
 |-5-6-------------|-5-6-------------|-5-6-4-----------|-5-6-3---------------|
 |-------0-0-0-0-0-|-------0-0-0-0-0-|-------0-0-0-0-0-|-------6-5-4-5-4-3-0-|

Q=180
 
 PM------| PM------|

[E] [E] [E] [E] [E] [E] [E] [E] [E] [E] [E] [E] [E] [E] [E] [E]  
 
 ||------------------|-----------------|
 ||o-----------------|-----------------|
 ||------------------|-----------------|
 ||------7-----------|-----7-----------|
 ||o-5-6-------------|-5-6-------------|
 ||--------0-0-0-0-0-|-------0-0-0-0-0-|

1. 2.
5/8
 
 PM------| PM------|

[E] [E] [E] [E] [E] [E] [E] [E] [E] [E] [E] [E] [E] [E] [E] [E] [B] [E]  
 
 |-----------------|------------------||------|
 |-----------------|-----------------o||------|
 |-----------------|------------------||------|
 |-----------------|------------------||------|
 |-5-6-4-----------|-5-6-3-----------o||---0--|
 |-------0-0-0-0-0-|-------0-0-0-0-0--||------|

Q=180
[4/4]  
 
 PM------| PM------| PM------| PM------|

[E] [E] [E] [E] [E] [E] [E] [E] [E] [E] [E] [E] [E] [E] [E] [E] [E] [E] [E] [E] [E] [E] [E] [E] [E] [E] [E] [E] [E] [E] [E] [E]  
 
 |-----------------|-----------------|-----------------|--------------------|
 |-----------------|-----------------|-----------------|--------------------|
 |-----9-----------|-----9-----------|-----------------|--------------------|
 |-7-8-7-----------|-7-8-7-----------|-7-8-6-----------|-7-8-5--------------|
 |-5-6-------------|-5-6-------------|-5-6-4-----------|-5-6-3--------------|
 |-------0-0-0-0-0-|-------0-0-0-0-0-|-------0-0-0-0-0-|-------0-0-0-0-0----|
 PM------| PM------| PM------| PM--------|

E E E E E E E E E E E E E E E E E E E E E E E E E E E S S E S S E E
 
 |-----------------|-----------------|-----------------|---------------------|
 |-----------------|-----------------|-----------------|---------------------|
 |-----9-----------|-----9-----------|-----------------|---------------------|
 |-7-8-7-----------|-7-8-7-----------|-7-8-6-----------|-7-8-5---------------|
 |-5-6-------------|-5-6-------------|-5-6-4-----------|-5-6-3---------------|
 |-------0-0-0-0-0-|-------0-0-0-0-0-|-------0-0-0-0-0-|-------6-5-4-5-4-3-0-|

Q=180 1.
 
 PM------| PM------| PM------| PM------|

[E] [E] [E] [E] [E] [E] [E] [E] [E] [E] [E] [E] [E] [E] [E] [E] [E] [E] [E] [E] [E] [E] [E] [E] [E] [E] [E] [E] [E] [E] [E] [E]  
 
 ||------------------|-----------------|-----------------|---------------------||
 ||o-----------------|-----------------|-----------------|--------------------o||
 ||------9-----------|-----9-----------|-----------------|---------------------||
 ||--7-8-7-----------|-7-8-7-----------|-7-8-6-----------|-7-8-5---------------||
 ||o-5-6-------------|-5-6-------------|-5-6-4-----------|-5-6-3--------------o||
 ||--------0-0-0-0-0-|-------0-0-0-0-0-|-------0-0-0-0-0-|-------0-0-0-0-0-----||

2.
 
 PM--------------------|

S S E S S E S S E S S E
 
 |----------------------------|
 |----------------------------|
 |----------------------------|
 |----------------------------|
 |-------------6-5-4-7-6-5----|
 |-6-5-4-5-4-3----------------|

Q=230
Gtr I
 
 PM--| PM--------| PM--| PM------|

[E] [E] [E] [E] [E] [E] [E] [E] [E] [E] [E] [E] [E] [E] [E] [E] [E] [E] [E] [E] [E] [E] [E] [E]  
 
 |-----------------|-----------------|--------------------|
 |-----------------|---5-------------|--------------------|
 |-----------------|-----6-5---------|--------------------|
 |-------7---------|---------------6-|-----------8-6-5----|
 |-6-7-6---7-6-6-7-|-6-------6-7-6---|-7-6-6-7-6----------|
 |-----------------|-----------------|--------------------|
 PM--| PM--------| PM--| PM------------|

[E] [E] [E] [E] [E] [E] [E] [E] [E] [E] [E] [E] [E] [E] [E] [E] [E] [E] [E] [E] [E] [E] [E] [E]  
 
 |-----------------|-----------------|--------------------|
 |-----------------|---5-------------|--------------------|
 |-----------------|-----6-5---------|--------------------|
 |-------6---------|---------------6-|--------------------|
 |-6-7-6---7-6-6-7-|-6-------6-7-6---|-7-6----------------|
 |-----------------|-----------------|-----5-8-4-7-3-6----|

Q=230
Gtr I
 
 PM--| PM--------| PM--| PM-------|

[E] [E] [E] [E] [E] [E] [E] [E] [E] [E] [E] [E] [E] [E] [E] [E] [E] [E] [E] [E] [E] [E] [E] [E]  
 
 |-----------------|-------------------|----------------------|
 |-----------------|-----5-------------|----------------------|
 |-----------------|-------6-5---------|----------------------|
 |-------7---------|-----------------6-|-------------8-6-5----|
 |-6-7-6---7-6-6-7-|--6--------6-7-6---|--7--6-6-7-6----------|
 |-----------------|-------------------|----------------------|

|
| Gtr II
| W +W +W
 
 |-----------------|-------------------|----------------------|
 |-----------------|-------------------|----------------------|
 |-----------------|-------------------|----------------------|
 |-0---------------|-(0)---------------|-(0)------------------|
 |-0---------------|-(0)---------------|-(0)------------------|
 |-0---------------|-(0)---------------|-(0)------------------|
 PM---| PM--------| PM--| PM-------------|

[E] [E] [E] [E] [E] [E] [E] [E] [E] [E] [E] [E] [E] [E] [E] [E] [E] [E] [E] [E] [E] [E] [E] [E]  
 
 |-------------------|-------------------|----------------------|
 |-------------------|-----5-------------|----------------------|
 |-------------------|-------6-5---------|----------------------|
 |---------6---------|-----------------6-|----------------------|
 |--6--7-6---7-6-6-7-|--6--------6-7-6---|--7--6----------------|
 |-------------------|-------------------|-------5-8-4-7-3-6----|

|
| +W +W +W
 
 |-------------------|-------------------|----------------------|
 |-------------------|-------------------|----------------------|
 |-------------------|-------------------|----------------------|
 |-(0)---------------|-(0)---------------|-(0)------------------|
 |-(0)---------------|-(0)---------------|-(0)------------------|
 |-(0)---------------|-(0)---------------|-(0)------------------|

Q=230
Gtr I
 
 PM--| PM--------| PM--| PM------|

[E] [E] [E] [E] [E] [E] [E] [E] [E] [E] [E] [E] [E] [E] [E] [E] [E] [E] [E] [E] [E] [E] [E] [E]  
 
 ||------------------|-----------------|--------------------|
 ||o-----------------|---5-------------|--------------------|
 ||------------------|-----6-5---------|--------------------|
 ||--------7---------|---------------6-|-----------8-6-5----|
 ||o-6-7-6---7-6-6-7-|-6-------6-7-6---|-7-6-6-7-6----------|
 ||------------------|-----------------|--------------------|

|
| Gtr II
| E E E E E E E E E E E E E E E E E E E E E E E E
 
 ||------------------|-----------------|--------------------|
 ||o-----------------|---5-------------|--------------------|
 ||--------5---------|-----6-5-------5-|-----------6-4-3----|
 ||--4-5-4---5-4-4-5-|-4-------4-5-4---|-5-4-4-5-4----------|
 ||o-----------------|-----------------|--------------------|
 ||------------------|-----------------|--------------------|

Q=230
Gtr I
 
 PM--| PM--------| PM--| PM------------|

[E] [E] [E] [E] [E] [E] [E] [E] [E] [E] [E] [E] [E] [E] [E] [E] [E] [E] [E] [E] [E] [E] [E] [E]  
 
 |-----------------|-----------------|---------------------||
 |-----------------|---5-------------|--------------------o||
 |-----------------|-----6-5---------|---------------------||
 |-------6---------|---------------6-|---------------------||
 |-6-7-6---7-6-6-7-|-6-------6-7-6---|-7-6----------------o||
 |-----------------|-----------------|-----5-8-4-7-3-6-----||

|
| Gtr II
 
 | PM--------|

| E E E E E E E E E E E E E E E E E E E E E E E E
 
 |-----------------|-----------------|---------------------||
 |-----------------|---5-------------|--------------------o||
 |-------5---------|-----6-5-------5-|---------------------||
 |-4-5-4---5-4-4-5-|-4-------4-5-4---|-5-4-----------------||
 |-----------------|-----------------|--------------------o||
 |-----------------|-----------------|-----5-8-4-7-3-6-----||

Gtrs I, II
 
 PM----------| PM--------| PM|

H. E E E E E E H +Q E E E E E E H. E E
 
 ||-------------|--------------|------------------|-------------|
 ||o------------|--------------|------------------|-------------|
 ||-------------|--------------|------------------|-------------|
 ||--0----------|---------1----|-(1)--------------|-3-----------|
 ||o-0----------|---------1----|-(1)--------------|-3-----------|
 ||--0------5-8-|-4-7-3-6-1----|-(1)--5-8-4-7-3-6-|-3-------5-8-|
 PM----| PM--------|

E E E E E E E E E E E E E E E E 4x
 
 |-----------------|---------------------||
 |-----------------|--------------------o||
 |-----------------|---------------------||
 |-----------------|---------------------||
 |---------5-6-5-8-|-7-5----------------o||
 |-4-7-3-6---------|-----5-8-4-7-3-6-----||

1.,2.,3. 4.
Gtr I
E E E E E E E E E E E E E E E E W 4x W
 
 ||------------------|-----------------|-----------||--------|
 ||o-----------------|-----------------|----------o||--------|
 ||------------------|-----------------|-----------||--------|
 ||------------------|-----------------|-----------||--------|
 ||o-0-0-0-0-0-0-0-0-|-0-0-0-0-0-0-0---|----------o||--------|
 ||--0-0-0-0-0-0-0-0-|-0-0-0-0-0-0-0---|-----------||--------|

|
| Gtr II
| E E E E E E E E E E E E E E E E W 4x W
 
 ||------------------|-----------------|-----------||--------|
 ||o-----------------|-----------------|----------o||--------|
 ||------------------|-----------------|-----------||--------|
 ||------------------|-----------------|-----------||--------|
 ||o-0-0-0-0-0-0-0-0-|-0-0-0-0-0-0-0---|----------o||-11\----|
 ||--0-0-0-0-0-0-0-0-|-0-0-0-0-0-0-0---|-----------||--------|

Gtr I
E E E E E E E E E E E E E E E E W
 
 ||------------------|-----------------|--------------------|
 ||o-----------------|-----------------|--------------------|
 ||------------------|-----------------|--------------------|
 ||------------------|-----------------|--------------------|
 ||o-0-0-0-0-0-0-0-0-|-0-0-0-0-0-0-0---|--------------------|
 ||--0-0-0-0-0-0-0-0-|-0-0-0-0-0-0-0---|--------------------|

|
| Gtr II
 
 | PM--| PM--------| PM--| PM------|

| E E E E E E E E E E E E E E E E E E E E E E E E
 
 ||------------------|-----------------|--------------------|
 ||o-----------------|---5-------------|--------------------|
 ||------------------|-----6-5---------|--------------------|
 ||--------7---------|---------------6-|-----------8-6-5----|
 ||o-6-7-6---7-6-6-7-|-6-------6-7-6---|-7-6-6-7-6----------|
 ||------------------|-----------------|--------------------|

E E E E E E E E E E E E E E E E W
 
 |-----------------|-----------------|---------------------||
 |-----------------|-----------------|--------------------o||
 |-----------------|-----------------|---------------------||
 |-----------------|-----------------|---------------------||
 |-0-0-0-0-0-0-0-0-|-0-0-0-0-0-0-0---|--------------------o||
 |-0-0-0-0-0-0-0-0-|-0-0-0-0-0-0-0---|---------------------||

|
 
 | PM--| PM--------| PM--| PM------------|

| E E E E E E E E E E E E E E E E E E E E E E E E
 
 |-----------------|-----------------|---------------------||
 |-----------------|---5-------------|--------------------o||
 |-----------------|-----6-5---------|---------------------||
 |-------6---------|---------------6-|---------------------||
 |-6-7-6---7-6-6-7-|-6-------6-7-6---|-7-6----------------o||
 |-----------------|-----------------|-----5-8-4-7-3-6-----||

Gtr I
 
 PM------------------------------------------------|

[E] [E] [E] [E] [E] [E] [E] [E] [E] [E] [E] [E] [E] [E] [E] [E] [E] [E] [E] [E] [E] [E] [E] [E]  
 
 ||------------------|-----------------|--------------------|
 ||o-----------------|-----------------|--------------------|
 ||------------------|-----------------|--------------------|
 ||------------------|-----------------|--------------------|
 ||o-----------------|-----------------|--------------------|
 ||--0-0-0-0-0-0-0-0-|-0-0-0-0-1-1-1-1-|-1-1-1-1-1-1-1-1----|

|
| Gtr II
 
 | PM--| PM--------| PM--| PM------|

| E E E E E E E E E E E E E E E E E E E E E E E E
 
 ||------------------|-----------------|--------------------|
 ||o-----------------|---5-------------|--------------------|
 ||------------------|-----6-5---------|--------------------|
 ||--------7---------|---------------6-|-----------8-6-5----|
 ||o-6-7-6---7-6-6-7-|-6-------6-7-6---|-7-6-6-7-6----------|
 ||------------------|-----------------|--------------------|
 PM------------------------------------------------|

[E] [E] [E] [E] [E] [E] [E] [E] [E] [E] [E] [E] [E] [E] [E] [E] [E] [E] [E] [E] [E] [E] [E] [E]  
 
 |-----------------|-----------------|---------------------||
 |-----------------|-----------------|--------------------o||
 |-----------------|-----------------|---------------------||
 |-----------------|-----------------|---------------------||
 |-----------------|-----------------|--------------------o||
 |-8-8-8-8-8-8-8-8-|-8-8-8-8-7-7-7-7-|-7-7-5-8-4-7-3-6-----||

|
 
 | PM--| PM--------| PM--| PM------------|

| E E E E E E E E E E E E E E E E E E E E E E E E
 
 |-----------------|-----------------|---------------------||
 |-----------------|---5-------------|--------------------o||
 |-----------------|-----6-5---------|---------------------||
 |-------6---------|---------------6-|---------------------||
 |-6-7-6---7-6-6-7-|-6-------6-7-6---|-7-6----------------o||
 |-----------------|-----------------|-----5-8-4-7-3-6-----||

Gtr I
[E] [E] [E] [E] [E] [E] [E] [E] [E] [E] [E] [E] [E] [E] [E] [E] [E] [E] [E] [E] [E] [E] [E] [E]  
 
 ||------------------|-----------------|--------------------|
 ||o-----------------|-----------------|--------------------|
 ||------------------|-----------------|--------------------|
 ||------------------|-----------------|--------------------|
 ||o-----------------|-----------------|--------------------|
 ||--0-0-0-0-0-0-0-0-|-0-0-0-0-1-1-1-1-|-1-1-1-1-1-1-1-1----|

|
| Gtr II
 
 | PM--| PM--------| PM--| PM------|

| E E E E E E E E E E E E E E E E E E E E E E E E
 
 ||------------------|-----------------|--------------------|
 ||o-----------------|---5-------------|--------------------|
 ||------------------|-----6-5---------|--------------------|
 ||--------7---------|---------------6-|-----------8-6-5----|
 ||o-6-7-6---7-6-6-7-|-6-------6-7-6---|-7-6-6-7-6----------|
 ||------------------|-----------------|--------------------|

E E E E E E E E E E E E E E E E E E E E E E E E W +W
 
 |-----------------|-----------------|------------------||----|---------*|
 |-----------------|-----------------|-----------------o||----|---------*|
 |-----------------|-----------------|------------------||----|---------*|
 |-----------------|-----------------|------------------||-0--|--(0)----*|
 |-----------------|-----------------|-----------------o||-0--|--(0)----*|
 |-8-8-8-8-8-8-8-8-|-8-8-8-8-7-7-7-7-|-7-7-5-8-4-7-3-6--||-0--|--(0)----*|

|
 
 | PM--| PM--------| PM--| PM------------|

| E E E E E E E E E E E E E E E E E E E E E E E E W +W
 
 |-----------------|-----------------|------------------||----|---------*|
 |-----------------|---5-------------|-----------------o||----|---------*|
 |-----------------|-----6-5---------|------------------||----|---------*|
 |-------6---------|---------------6-|------------------||-0--|--(0)----*|
 |-6-7-6---7-6-6-7-|-6-------6-7-6---|-7-6-------------o||-0--|--(0)----*|
 |-----------------|-----------------|-----5-8-4-7-3-6--||-0--|--(0)----*|

Duration Legend
 
 ---------------
 W - whole; H - half; Q - quarter; E - 8th; S - 16th; T - 32nd; X - 64th; a - acciaccatura

+ - note tied to previous; . - note dotted; .. - note double dotted
Uncapitalized letters represent notes that are staccato (1/2 duration)
Irregular groupings are notated above the duration line
Duration letters will always appear directly above the note/fret number it represents the
duration for. Duration letters with no fret number below them represent rests. Multi-
bar rests are notated in the form Wxn, where n is the number of bars to rest for. Low
melody durations appear below the staff
Tablature Legend
 
 ----------------

h - hammer-on
p - pull-off
b - bend
pb - pre-bend
r - bend release (if no number after the r, then release immediately)
/\ - slide into or out of (from/to "nowhere")
s - legato slide
S - shift slide
- natural harmonic
(n) - artificial harmonic
n(n) - tapped harmonic
~ - vibrato
tr - trill
T - tap
TP - trem. picking
PM - palm muting
\n/ - tremolo bar dip; n = amount to dip
\n - tremolo bar down
n/ - tremolo bar up
/n\ - tremolo bar inverted dip
= - hold bend; also acts as connecting device for hammers/pulls
<> - volume swell (louder/softer)
x - on rhythm slash represents muted slash
o - on rhythm slash represents single note slash
Misc Legend
 
 -----------

| - bar
|| - double bar
||o - repeat start
o|| - repeat end
*| - double bar (ending)
: - bar (freetime)
$ - Segno
& - Coda
Tempo markers - = BPM(8/16=s8/s16), where s8 = swing 8ths, s16 = swing 16ths
***************************************************************************************
* Generated using Power Tab Editor by Brad Larsen - http://powertab.guitarnetwork.org *
***************************************************************************************

Important: The song above is NOT stored on the Chordie server. The original song is hosted at www.xguitar.com. Chordie works as a search engine and provides on-the-fly formatting. Chordie does not index songs against artists'/composers' will. To remove this song please click here.

Text color:
Chord color:
Chord grids: 
Font size:    
Page size: 

B E
Rate #3 of 4 versions

Jango Player

Login - add to songbook

SHARE PAGE  



You need to log in to post comments