Guitar Tabs, Chords and Lyrics
Major upgrade!! After one year development the new version of Chordie is now online! Please give feedback.


Omerta   Lamb of God

 
 -------------------------------------------------------------------------------

 


 Omerta - Lamb of God


 

 
 -------------------------------------------------------------------------------

 


 Tabbed by: SeeMeRot


 Email: seemerot@hotmail.com


 


 Tuning: Drop D


 


 . = palm mute


 v = upstroke, ^ = downstroke


 + = harmonic


 b = bend


 / = slide up


 


 Riff #1 - play 4x


 ^ v ^ ^ ^ ^ ^ ^ ^ ^ v ^ ^ ^ ^ ^ ^ ^ ^ v ^ ^ ^ ^ ^ ^ ^ ^ ^ ^ ^ ^ ^ ^ ^


 

 
 e[----------------------------------------------------------------------------|
 B[----------------------------------------------------------------------------|
 G[----------------------------------------------------------------------------|
 D[----------------------------------------------------------------------------|
 A[-0-0-0--0-0-5-0-0-0--0-0-0--0-0-4-0-0-0--0-0-0--0-0-7-0-0-0-0---0-0-----5---|
 D[-0-0-0--0-0---0-0-0--0-0-0--0-0---0-0-0--0-0-0--0-0---0-0-0-0-8-0-0-8-7---7-|

 


 . . . . . . . . . . . . . . . . . . . . . . . . . . .


 


 ^ v ^ ^ ^ ^ ^ ^ ^ ^ v ^ ^ ^ ^ ^ ^ ^ ^ v ^ ^ ^ ^ ^ ^ ^ ^ ^ ^ ^ ^ ^


 

 
 e[----------------------------------------------------------------------------|
 B[----------------------------------------------------------------------------|
 G[----------------------------------------------------------------------------|
 D[--------------------------------------------------------------6-----6/10----|
 A[-0-0-0--0-0-5-0-0-0--0-0-0--0-0-4-0-0-0--0-0-0--0-0-7-0-0-0-0---0-0------10-|
 D[-0-0-0--0-0---0-0-0--0-0-0--0-0---0-0-0--0-0-0--0-0---0-0-0-0---0-0---------|

 


 . . . . . . . . . . . . . . . . . . . . . . . . . . . +


 


 Riff #2 - play 1x


 ^ ^ ^ ^ ^ ^ ^ ^ ^ ^ ^ ^ ^ ^ ^ ^ ^ ^ ^ ^ ^ ^ ^ ^ ^ ^ ^ ^ ^ ^


 

 
 e[--------------------------------------------------------------------------|
 B[--------------------------------------------------------------------------|
 G[--------------------------------------------------------------------------|
 D[--------------------------------------------------------------------------|
 A[-3-6--3-6--3-6--3-6-3-6--3-0--3-0--3-0--3-0-3-0--3-6--3-6--3-6--3-6-3-6---|
 D[-3-6--3-6--3-6--3-6-3-6--3-0--3-0--3-0--3-0-3-0--3-6--3-6--3-6--3-6-3-6---|

 


 . b . b . b . b . b . . . . . . b . b . b . b . b


 


 Riff #3 = Riff #1 - play 2x


 


 Riff #4 - play 2x


 ^ ^ ^ ^ ^ ^ ^ ^ ^ ^ ^ ^ ^ ^ ^ ^ ^ ^ ^ ^


 

 
 e[--------------------------------------------------|
 B[--------------------------------------------------|
 G[--------------------------------------------------|
 D[--------------------------------------------------|
 A[-3-6--3-6--3-6--3-6-3-6--3-0--3-0--3-0--3-0-3-0---|
 D[-3-6--3-6--3-6--3-6-3-6--3-0--3-0--3-0--3-0-3-0---|

 


 . b . b . b . b . b . . . . .


 


 Riff #5 - play 8x


 ^ V ^ v ^ ^ ^ ^ ^ ^ ^ ^ ^ ^ ^ ^ ^ ^ ^ ^ ^ v ^ v ^ ^ ^ ^ ^ ^ ^ ^ ^ ^ ^


 

 
 e[----------------------------------------------------------------------------|
 B[----------------------------------------------------------------------------|
 G[----------------------------------------------------------------------------|
 D[----------------------------------------------------------------------------|
 A[-0-0-0-0-6-0-0-0-0-0-0-0-0-0-0-0-0-0-0-0--0-0-0-0-6--0-0-0-0--0-1-0-0-3-4---|
 D[-0-0-0-0-6-0-0-0-0-0-0-0-0-0-0-0-0-0-0-0--0-0-0-0-6--0-0-0-0--0-1-0-0-3-4---|

 


 . . . . . . . . . . . . . . . . . . . . . . . . . . . . .


 


 ^ ^ ^ ^ v ^ v


 

 
 e[--------- -----------|
 B[--------- -----------|
 G[--------- -----------|
 D[--------- -----------|
 A[-0-0-0--- -0-0-0-0---|
 D[-0-0-0--- the last part of Riff #5 entering into Riff #6 is > -0-0-0-0---|

 


 . . . . . . .


 


 Riff #6 - play 4x


 ^ ^ ^ ^ ^ ^ ^ ^ ^ ^ v ^ v


 

 
 e[---------------------------------------|
 B[---------------------------------------|
 G[---------------------------------------|
 D[---------------------------------------|
 A[------0-------0----0--0-0-0--0-0-0-0---|
 D[-6/9--0--3/6--0--6-0--0-0-0--0-0-0-0---|

 


 b . b . b . . . . . . . .


 


 Riff #7 - play 4x


 ^ ^ ^ ^ ^ ^ ^ ^ ^ ^ v ^ v


 

 
 e[---------------------------------------|
 B[---------------------------------------|
 G[---------------------------------------|
 D[---------------------------------------|
 A[-6/9--0--3/6--0--6-0--0-0-0--0-0-0-0---| the last part of this riff just
 D[-6/9--0--3/6--0--6-0--0-0-0--0-0-0-0---| let the 0 note sustain after

 


 b . b . b . . . . . . . . the last 6


 


 Riff #8 - play 2x


 ^ ^ ^ ^ ^ ^ ^ ^ ^ ^ ^ ^ ^ ^ ^ ^ ^ ^ ^ ^ ^ ^ ^ ^ ^


 

 
 e[-------------------------------------------------------|
 B[-------------------------------------------------------|
 G[-------------------------------------------------------|
 D[-------------------------------------------------------|
 A[-0-0-0-5-0-0--0-0-0-4-0-0--0-0-0-7-0-0-0---0-----5-----|
 D[-0-0-0---0-0--0-0-0---0-0--0-0-0---0-0-0-8-0-8-7---7---|

 


 . . . . . . . . . . . . . . . . .


 


 ^ ^ ^ ^ ^ ^ ^ ^ ^ ^ ^ ^ ^ ^ ^ ^ ^ ^ ^ ^ ^ ^


 

 
 e[---------------------------------------------------------|
 B[---------------------------------------------------------|
 G[---------------------------------------------------------|
 D[-----------------------------------------6---6/10--------|
 A[-0-0-0-5-0-0--0-0-0-4-0-0--0-0-0-7-0-0-0---0-------10----|
 D[-0-0-0---0-0--0-0-0---0-0--0-0-0---0-0-0---0-------------|


Important: The song above is NOT stored on the Chordie server. The original song is hosted at www.xguitar.com. Chordie works as a search engine and provides on-the-fly formatting. Chordie does not index songs against artists'/composers' will. To remove this song please click here.

This song is displayed as text-only. Transposing and tuning is only available for chordpro-songs.
Rate #1 of 3 versions

Jango Player

Login - add to songbook

SHARE PAGE  



You need to log in to post comments