Guitar Tabs, Chords and Lyrics
Major upgrade!! After one year development the new version of Chordie is now online! Please give feedback.


I Can't Quit You Baby  Led Zeppelin

I CAN'T QUIT YOU BABY Guitar Tab
[(A)]  
 
 e|---------------------------|---------------------------------|--5----|
 B|---------------------------|---------------------------------|--5----|
 G|---------------------------|---------------------------------|--5----|
 D|---------------------------|---------------------------------|-------|
 A|---------------------------|---------------------------------|--5----|
 E|---------------------------|---------------------------------|-------| 

I, I,__________ I can't quit you babe,
[D9] [A]  
 
 e|----------------------------------------------------------------------|
 B|------------------------------------------------------------------5---|
 G|-------------------------------------------x----------------7b(9)-----|
 D|----------------------------------------------------------------------|
 A|----------------------------------------------------------------------|
 E|----------------------------------------------------------------------|

so I'm gonna put you down for a while.
 
 e|-------------------------------------------|----------------------------|
 B|8p5---8b(10)--(10)--5----------------------|----------5h8p5------8b(10)-|
 G|-----------------------7--5--6~~~--(6)/16--|---7b(9)--5-----------------|
 D|-------------------------------------------|----------------------------|
 A|-------------------------------------------|----------------------------|
 E|-------------------------------------------|----------------------------|

[D9]  
 
 e|-----------------------------------------|----------------------------|
 B|--r8\7-~~~---------------------------10--|--(10)~~~-------------------|
 G|-----7-----------------------------------|----------------------------|
 D|-----------------------------------------|----------------------------|
 A|-----------------------------------------|----------------------------|
 E|-----------------------------------------|----------------------------|

I said, I can't quit you babe, 2
[A]  
 
 e|----------------------------------------------|-----------------------|
 B|----------------------------------------------|---------5--5--8p5-----|
 G|----------------------------------------------|---7b(9)---------------|
 D|----------------------------------------------|-----------------------|
 A|----------------------------------------------|-----------------------|
 E|----------------------------------------------|-----------------------|

I guess I've got to put you down for a while.
 
 e|-----------------------------|-------------------------------|
 B|-8b(10)~~~--(8)--------------|--------5--5--8p5--------------|
 G|-----------------7--5--6~~~--|-7b(9)---------------5/-13~~~--|
 D|-----------------------------|-------------------------------|
 A|-----------------------------|-------------------------------|
 E|-----------------------------|-------------------------------|

[E9]  
 
 e|--------------------------------------/21--------------|--5-----------|
 B|-------------------------------------------------------|--5-----------|
 G|--------------------------------------------/18--------|--5-----------|
 D|-------------------------------------------------7-----|--------------|
 A|----------------------------------------------------0--|--5-----------|
 E|-------------------------------------------------------|--------------|

Said, you messed up my happy home,
[D9] [A] [Bb]  
 
 e|----------------------------------------------------------------------|
 B|-------------------------------------------------5--6-----------------|
 G|-------------------------------------------------6--7------7p5--7b(9)r|
 D|-------------------------------------------------7--8-----------------|
 A|-------------------------------------------------7--8-----------------|
 E|-------------------------------------------------5--6-----------------|

made me mistreat my only child.
[A] [Bb]  
 
 e|------------------------|----------------------------------------------|
 B|------------------------|-----5-----6----------------------------------|
 G|7p5-----5--7--7--7b-(9)-|~~~--6-----7---7p5--7p5-----5-----------------|
 D|-----7------------------|-----7-----8-------------7-----7--5h7p5-------|
 A|------------------------|-----7-----8-----------------------------7----|
 E|------------------------|-----5-----6----------------------------------|

[A]  
 
 e|----------------|-----------------------------------------------------|
 B|----------------|-----------------------------------------------------|
 G|----------------|-----------------------------------------------------|
 D|-5--------------|-----------------------------------------------------|
 A|----7--5--4~~~--|-----------------------------------------------------|
 E|----------------|-----------------------------------------------------|

Yes, you know I love you baby,
[D9] [A] [Bb]  
 
 e|------4--/--5---------5----/----8------------------------|
 B|------4--/--5---------5----/----8------------------------|
 G|------4--/--5---------5----/----8------------------------|
 D|--x------------------------------------------------------|
 A|------4--/--5---------5----/----8------------------------|
 E|---------------------------------------------------------|
 e|-------------------------------|--------------------------------------|
 B|-------------------------------|------------------------------5--5----|
 G|-------------------------------|-----------------------7b(9)----------|
 D|-------------------------------|--------------------------------------|
 A|-------------------------------|--------------------------------------|
 E|-------------------------------|--------------------------------------|

my love for you I could never hide.
 
 e|--------------------------------------|------------------------------|
 B|8p5---8b(10)~~~---8p5-----------------|---------5--5--8p5------------|
 G|-----------------------7--5--6~~~/19--|--7b(9)--------------4/14~~~~-|
 D|--------------------------------------|------------------------------|
 A|--------------------------------------|------------------------------|
 E|--------------------------------------|------------------------------|
 e|----------|-------------------------------------------------|
 B|----------|-------------------------------------------------|
 G|-14b(16)--|------------------------------------4\3/4\2/4----|
 D|----------|-------------------------------------------------|
 A|----------|------------------------------------5\4/5\3/5----|
 E|----------|-------------------------------------------------|

Oh! You know I love you babe,
 
 e|-----------------------------------------------|
 B|-----------------------------------------------|
 G|--\2/4\2-\-------------------------------------|
 D|-----------------------------------------------|
 A|--\3/5\3-\-------------------------------------|
 E|-----------------------------------------------|

my love for you I could never hide.
 
 e|----------------------------------------------------5-----|---------------|
 B|--------5--5--8p5b(7)--8b(10)~~~---8p5-----------5---/11~~|-------5--5--8-|
 G|-7b(9)----------------------------------7--5--6-----------|-----7---------|
 D|----------------------------------------------------------|-7b9)----------|
 A|----------------------------------------------------------|---------------|
 E|----------------------------------------------------------|---------------|
 e|------------------------------------------|--------------|
 B|-p5---8b(10)~~~---8p5b(7)-----------5-----|--5~~~--------|
 G|---------------------------7--5--6-----6--|--------------|
 D|------------------------------------------|--------------|
 A|------------------------------------------|--------------|
 E|------------------------------------------|--------------|
 e|-----------------------------------------------------|----------------|
 B|-------------------------------------------------13--|--b(17)---------|
 G|-----------------------------------------------------|----------------|
 D|-----------------------------------------------------|----------------|
 A|-----------------------------------------------------|----------------|
 E|-----------------------------------------------------|----------------|

And when I feel you near me little girl,
[A] [Bb]  
 
 e|---------------------------------------------------------|--5----6-----|
 B|---------------------------------------------------------|--5----6-----|
 G|10~~~-------------------------------------------------7--|--5----7-----|
 D|------------------------------------------------------7--|--6----8-----|
 A|---------------------------------------------------------|--7----8-----|
 E|---------------------------------------------------------|--7----6-----|

I know you are my one desire.
[A] [Bb]  
 
 e|----------------------------------|-----------------------------------|
 B|----------------------------------|----------5-----6-----------5------|
 G|------7p5--7p5-----5--7--7--7--7--|---7b(9)--6-----7--------5---------|
 D|----------------7-----------------|----------7-----8-----7------------|
 A|----------------------------------|----------7-----8------------------|
 E|----------------------------------|----------5-----6------------------|

SOLO:
 
 e|------5--------------8--9---10b(12)----8b(9)-|------10--8-----8-------|
 B|------5-----8/10~~~-----------------10-------|--10--------------------|
 G|---------------------------------------------|------------------------|
 D|---------------------------------------------|------------------------|
 A|---------------------------------------------|------------------------|
 E|---------------------------------------------|------------------------|
 e|-8--------8h9--9--10p9--10p9---10b(12)--10---8b(9)-------------8--9~~~--|
 B|---10~~~--------------------------------------------10--10~~~-----------|
 G|------------------------------------------------------------------------|
 D|------------------------------------------------------------------------|
 A|------------------------------------------------------------------------|
 E|------------------------------------------------------------------------|
 e|10p9--10b(12)----------8b(9)------|--12-------------12b(15)--------------|
 B|---------------10~~~----------10--|------10--10--10---------10--10--10---|
 G|----------------------------------|--------------------------------------|
 D|----------------------------------|--------------------------------------|
 A|----------------------------------|--------------------------------------|
 E|----------------------------------|--------------------------------------|
 e|-12b(15)---------12b(15)--13--12--10------10------------------------|
 B|---------10--10-------------------13------13--13p12p10------10------|
 G|----------------------------------------------------11------11------|
 D|--------------------------------------------------------------------|
 A|--------------------------------------------------------------------|
 E|--------------------------------------------------------------------|
 e|----------------------------------------------------------------------|
 B|10--12--10--12p10------10------10---13b(17)----(17)-----10--10--10----|
 G|-------------------11------11-----------------------------------------|
 D|----------------------------------------------------------------------|
 A|----------------------------------------------------------------------|
 E|----------------------------------------------------------------------|
 e|---------------------------------------------------------------------|
 B|-----13\----5--8p5--8p5----------------------------------------------|
 G|--------/6----------------7b(9)--7--5--6--------------------5-----5--|
 D|------------------------------------------7--5-----5--6--7-----7-----|
 A|------------------------------------------------7--------------------|
 E|---------------------------------------------------------------------|
 e|---------------8p5-----5--------------|-----------------------------------|
 B|--------5h8p5-------8-----8p5---------|-------------5---------------------|
 G|-7b(9)--------------------------7--5--|--------5h6-----7--5--6------------|
 D|--------------------------------------|--7--7-------------------5~~~------|
 A|--------------------------------------|-----------------------------------|
 E|--------------------------------------|-----------------------------------|
 e|--------------------------------------|--------------------------------|
 B|--------------------------------------|--------------------------------|
 G|--------------------------------------|--------------------------------|
 D|----5h7p5--5--------------------------|--------------------------------|
 A|-0------------7--5--4~~~--5--4--5--4--|--5--4--5--4--5--4h5--5--4------|
 E|--------------------------------------|--------------------------------|
 e|--------------------------|--------------------------------------------|
 B|--------------------------|--------------------------------------------|
 G|--------------------------|------------------------5-----5--7p5--7-----|
 D|--------------x-----------|-------5-----5--7p5--7-----7----------------|
 A|-5p4--5/7--0---/10-----x--|/7--7-----7---------------------------------|
 E|--------------------0-----|--------------------------------------------|
 e|--------------------8p5-----5-------------------------------------5----|
 B|-5-----5--8p5--8p5-------8-----8p5-----------------------------8-------|
 G|-5--7-------------------------------7p5h7p5--7p5-----5-----/7----------|
 D|--------------------------------------------------7-----7--------------|
 A|-----------------------------------------------------------------------|
 E|-----------------------------------------------------------------------|

[A] [Bb]  
 
 e|------------------------12b(14)-|--12------------------------------------|
 B|---13b(17)~~r13p10~~~-----------|------10~~~--5--------6-----------------|
 G|--------------------------------|-------------6--------7---(9)r7p5--7p5--|
 D|--------------------------------|-------------7--------8-----------------|
 A|--------------------------------|-------------7--------8-----------------|
 E|--------------------------------|-------------5--------6-----------------|
 e|----------------------------|-------------------------------------------|
 B|-------7--------------------|-------------5-----6-----------------------|
 G|----5--7--7--7--7--7--7--x--|---7b(9)~~~--6-----7----7b(9)--7p5--7p5----|
 D|-7--------------------------|-------------7-----8-------------------7---|
 A|----------------------------|-------------7-----8-----------------------|
 E|----------------------------|-------------5-----6-----------------------|
 e|----------------5--||---10b(12)-----10-----8------10b(12)---------|
 B|-------------5-----||---10b(12)-----10-----8------10B(12)---------|
 G|-5-----5--6--------||----------------------------------------10---|
 D|----7--------------||---------------------------------------------|
 A|-------------------||---------------------------------------------|
 E|-------------------||---------------------------------------------|
 e|-10b(12)---10------8b(9)--------------------------|--10b(12)---10b(12)-|
 B|-10b(12)---10------------10--10~~~--(10)/20---10--|--------------------|
 G|--------------------------------------------------|--------------------|
 D|--------------------------------------------------|--------------------|
 A|--------------------------------------------------|--------------------|
 E|--------------------------------------------------|--------------------|

grad. release
 
 e|-10--8---10b(12)---------------|---10b(12)--------------------r10--|
 B|---------------------------10--|---10b(12)--------------------r10--|
 G|-------------------------------|-----------------------------------|
 D|-------------------------------|-----------------------------------|
 A|-------------------------------|-----------------------------------|
 E|-------------------------------|-----------------------------------|
 e|-----------------------------------------------8p5-----5-----------------|
 B|---------------------------------------5--8p5-------8--5-----------------|
 G|-9b(11)--9p7\5--7p5---5-----5---7b(9)---------------------7p5--7p5-----5-|
 D|-------------------------7-----7------------------------------------7----|
 A|-------------------------------------------------------------------------|
 E|-------------------------------------------------------------------------|
 e|-------------------|-----------------------------------------------8p5-|
 B|-------------------|---------------------------------------5--8p5------|
 G|-------------------|---9p7b(9)r7p5--7p5-----5-----5---7b(9)------------|
 D|7--5h7p5-----5--7--|---------------------7-----7-----------------------|
 A|----------7--------|---------------------------------------------------|
 E|-------------------|---------------------------------------------------|
 e|-----5--5--5--|-----------------------------------------------------|
 B|--8-----------|-----------------------------------------------------|
 G|--------------|--------5--------------------------------------------|
 D|--------------|--0--7-----7--5h7p5-----5----------------------------|
 A|--------------|---------------------7-----7p5--5\4--5\4--5\4--5-----|
 E|--------------|-----------------------------------------------------|
 e|--------------------------------------------------------|----------------|
 B|--------------------------------------------------------|----------------|
 G|--------------------------------------------------------|----------------|
 D|--------------------------------------------------------|-------5--------|
 A|-\4\5--4---5b(6)-----5-------------------5-----------x--|--5/6-----7--3--|
 E|------------------7-----8--5h8--5--5--7-----8--8--7-----|----------------|
 e|---------------------------------------------------------------------|
 B|---------------------------------------------------------------------|
 G|------------------------------------------------------------------0--|
 D|----------------------------5-----5h7--7---7b(9)--7--5h7p5-----5-----|
 A|h5p3p0--3----------5/6--7-----7----------------------------7--------|
 E|------------5--5p0---------------------------------------------------|
 e|------------------------------------8p5-----5--5--------8--9--10----10-|
 B|----------------------------5--8p5-------8--------8/10-----------------|
 G|---------------------7b(9)---------------------------------------------|
 D|-5---7b(9)~~~-----5\---------------------------------------------------|
 A|---------------7-------------------------------------------------------|
 E|-----------------------------------------------------------------------|
 e|-10b(12)------8b(9)-------------10b(12)---10--8-------------------------|
 B|--------------------------10~~~--10--------------10~~~--(10)\5---6------|
 G|-------------------------------------------------------------6---7--7p5-|
 D|-------------------------------------------------------------7---8------|
 A|------------------------------------------------------------------------|
 E|------------------------------------------------------------------------|
 e|-----------------------------------5-------------------------------------|
 B|----------------5--5--8p5--8p5h8------8b(10)--------5--5-----5-----------|
 G|-7p5-----5-----5--7--------------------------------------------7-----7p5-|
 D|------7-----7------------------------------------------------------------|
 A|-------------------------------------------------------------------------|
 E|-------------------------------------------------------------------------|

[A] [Bb]  
 
 e|-----------------------------------------------------------------------|
 B|------------5-----6----------------------------------------------------|
 G|----7p5~~~--6-----7---7b-(8)---(8)--(8)---(8)--(8)---(8)--(8)---(8)----|
 D|-7----------7-----8----------------------------------------------------|
 A|------------7-----8----------------------------------------------------|
 E|------------5-----6----------------------------------------------------|

VERSE:
 
 e|-------||-------------------------------------------------------------|
 B|-------||-------------------------------------------------------------|
 G|-------||-------------------------------------------------------------|
 D|-7b(9)-||~~~----------------------------------------------------------|
 A|-------||-------------------------------------------------------------|
 E|-------||-------------------------------------------------------------|

When I hear you moanin' and groanin', babe,
[D9] [(A)]  
 
 e|------4---/----5------------------------------------------|
 B|------4---/----5------------------------------------------|
 G|------4---/----5------------------------------------------|
 D|----------------------------------------------------------|
 A|------4---/----5------------------------------------------|
 E|----------------------------------------------------------|

you know it hurts me deep down inside.
 
 e|----------5---------------------------------------------------------------|
 B|-------5--5-----8p5---8b(10)--------5/14---------5--5--8p5---/10/13/15/17-|
 G|-7b(9)------------------------7--5---------7b(9)--------------------------|
 D|--------------------------------------------------------------------------|
 A|--------------------------------------------------------------------------|
 E|--------------------------------------------------------------------------|
 e|---------------------------------------------------------------------|
 B|----------------------------------------------------------7--7b(9)---|
 G|----------------------------------------------------------7--7b(9)---|
 D|---------------------------------------------------------------------|
 A|---------------------------------------------------------------------|
 E|---------------------------------------------------------------------|

When you hear me moanin' and groanin', baby,
 
 e|----------------------------------------------------------------------|
 B|----------------------------------------------------------------------|
 G|-7--7b(9)---7--7b(9)---7--7b(9)---(10)--------------------------------|
 D|-7--7b(9)---7--7b(9)---7--7b(9)---(10)--x-----------------------------|
 A|----------------------------------------------------------------------|
 E|----------------------------------------------------------------------|

you know it hurts me deep down
inside.
 
 e|-------------------------------------------5-------------|----------------|
 B|--------5--5--8p5---8b(10)--8--5-----------5---/10~~~--x-|-------5--5--8p5|
 G|-7b(9)----------------------------7--5--6----------------|-7b(9)----------|
 D|---------------------------------------------------------|----------------|
 A|---------------------------------------------------------|----------------|
 E|---------------------------------------------------------|----------------|
 e|----------------4------|----/-7-----------------------------------------|
 B|-----8b(10)-----4------|----/-7-----------------------------------------|
 G|----------------4------|----/-7-----------------------------------------|
 D|-----------------------|------------------------------------------------|
 A|----------------4------|----/-7-----------------------------------------|
 E|-----------------------|------------------------------------------------|

When,you hear me holler, baby,
[A] [Bb]  
 
 e|-------/16-------------|------------5--------|------------------------|
 B|----------/17----------|------------5--------|-----5--------6---------|
 G|-------------/16/12\---|------------5~~~~~~--|-----6--------7---------|
 D|-----------------------|---------------------|-----7--------8---------|
 A|-----------------------|------------5--------|-----7--------8---------|
 E|--------------------0--|---------------------|-----5--------6---------|

[A]  
 
 e|------------------------------------------------8-------------------------|
 B|--------------------------------------------------------------5-----------|
 G|-7b(9)-----7p5-----5--7-----7-----7-----7--7--7---------7b(9)-6-----------|
 D|------------7-------------------------------------------------7-----------|
 A|--------------------------------------------------------------7-----------|
 E|--------------------------------------------------------------5-----------|

[Bb]  
 
 e|-------------------------------------8p5-----5-----8p5--|
 B|-6----------------------------------------8-------------|
 G|-7------7p5--7p5-----5----------------------------------|
 D|-8----------------7-----7--5h7p7------------------------|
 A|-8------------------------------------------------------|
 E|-6------------------------------------------------------|

[A] [Bb]  
 
 e|-------------||
 B|-5--------6--||
 G|-6--------7--||
 D|-7--------8--||
 A|-7--------8--||
 E|-5--------6--||


Important: The song above is NOT stored on the Chordie server. The original song is hosted at www.xguitar.com. Chordie works as a search engine and provides on-the-fly formatting. Chordie does not index songs against artists'/composers' will. To remove this song please click here.

Text color:
Chord color:
Chord grids: 
Font size:    
Page size: 

A Bb D9 E9
Rate #3 of 3 versions

Login - add to songbook

SHARE PAGE  




You need to log in to post comments