Guitar Tabs, Chords and Lyrics
Major upgrade!! After one year development the new version of Chordie is now online! Please give feedback.


Take Me Away  Lifehouse

*standard tuning*
 
 e|---------------5--10-9-----------------------|
 B|---3--5-7--------------7----8-7h3---2-2----|
 G|---------------------------------------------|
 D|---------------------------------------------|
 A|---------------------------------------------|
 E|---------------------------------------------|

D G Bm G 2x
This t[D]ime al[G]l I want is you[Bm]
Ther[G]e is no one else[D]
Who [G]can take your place[Bm] [G]
This [D]time you burne[G]d me with your eyes[Bm]
You se[G]e past all the lies[D]
You ta[G]ke it all away[Bm] [G]
[A]I?ve seen it all and it?s never enough
It keeps lea[Bm]ving me needing you[G]
Take me away[D] [A]
Take me away[Bm] [G]
I?ve got nothing left to say[D] [A]
Just take me away[Bm] [G]
I [D]try to m[G]ake my way to you[Bm]
But s[G]till I feel so lo[D]st
I don?t k[G]now what else I can d[Bm]o[G]
I?ve s[A]een it all and it?s never enough
It keeps lea[Bm]ving me needing you[G]
Take me away[D] [A]
Take me away[Bm] [G]
I?ve got nothing left to say[D] [A]
Just take me away[Bm] [G]
[F#m]Don?t give up on me yet[G]
[F#m]Don?t forget who I am[Em]
[F#m]I know I?m not there yet[G]
[F#m]But don?t let me stay here alone[A]
 
 e|-------2---------------2--0-3-2-5---7-9--7-10--9--------------|
 B|---3--2--5-3-5-------0---------------------------7--3--------|
 G|-----------------2--------------------------------------------|
 D|--------------------------------------------------------------|
 A|--------------------------------------------------------------|
 E|--------------------------------------------------------------|

This t[D]ime al[G]l I want is you[Bm]
Ther[G]e is no one else[D]
Who [G]can take your place[Bm] [G]
This [D]time you burne[G]d me with your eyes[Bm]
You se[G]e past all the lies[D]
You ta[G]ke it all away[Bm] [G]
I?ve s[A]een it all and it?s never enough
It keeps lea[Bm]ving me needing you[G]
Take me away[D] [A]
Take me away[Bm] [G]
I?ve got nothing left to say[D] [A]
Just take me away[Bm] [G]

Important: The song above is NOT stored on the Chordie server. The original song is hosted at www.xguitar.com. Chordie works as a search engine and provides on-the-fly formatting. Chordie does not index songs against artists'/composers' will. To remove this song please click here.

Text color:
Chord color:
Chord grids: 
Font size:    
Page size: 

A Bm D Em F#m G
Rate #5 of 22 versions

Jango Player

Login - add to songbook

SHARE PAGE  




You need to log in to post comments