Guitar Tabs, Chords and Lyrics
Major upgrade!! After one year development the new version of Chordie is now online! Please give feedback.


Papercut  Linkin Park

Title:Papercut
Tunning:Dropped D one half step down
[C#] [G#] [C#] [F#] [A#] [D#]  
Main Riff:
 
 x|-10----12----13----12----10----12----13----12---------|x
 x|----10----10----10----10----10----10----10----10------|x
 x|------------------------------------------------------|x
 x|------------------------------------------------------|x
 x|------------------------------------------------------|x
 x|------------------------------------------------------|x

Intro:
Play 4 times
 
 x|----------------------------------------|x
 x|----------------------------------------|x
 x|---------10---9---5---------------------|x
 x|-0-0-----8----7---5---------------------|x
 x|-0-0-----8----7---3---------------------|x
 x|-0-0------------------------------------|x

Verse
 
 x|-------------------------|x
 x|-------------------------|x
 x|-------------------------|x
 x|-1-1-3-0-0-0--8-88-8-7-7-|x <---- 1st, 5th and 7th time
 x|-1-1-3-0-0-0--8-88-8-7-7-|x
 x|-1-1-3-0-0-0--8-88-8-7-7-|x
 x|-------------------|x
 x|-------------------|x
 x|-------------------|x
 x|-0-0-0--8-88-8-7-7-|x <---- 2nd, 3rd and 4th time
 x|-0-0-0--8-88-8-7-7-|x
 x|-0-0-0--8-88-8-7-7-|x 

Chorus
(Another guitar can play the Main Riff as background)
 
 x|----------------------------------------|x
 x|----------------------------------------|x
 x|---------10---9---5---------------------|x
 x|-0-0-----8----7---5---------------------|x
 x|-0-0-----8----7---3---------------------|x
 x|-0-0------------------------------------|x

After the chours play:
Verse 2:
 
 x|-------------------------|x
 x|-------------------------|x
 x|-------------------------|x
 x|-1-1-3-0-0-0--8-88-8-7-7-|x <------1st,2nd,3rd,4th,
 x|-1-1-3-0-0-0--8-88-8-7-7-|x 5th,7th and 8th time
 x|-1-1-3-0-0-0--8-88-8-7-7-|x
 x|-------------------|x
 x|-------------------|x
 x|-------------------|x
 x|-0-0-0--8-88-8-7-7-|x <---- 6th time
 x|-0-0-0--8-88-8-7-7-|x
 x|-0-0-0--8-88-8-7-7-|x 

PLAY THE CHORUS 2 TIMES AND END WITH
 
 x|----------------------|x
 x|----------------------|x
 x|----------------------|x
 x|-1-1-3-0-0-0-0-0-0-0-0|x
 x|-1-1-3-0-0-0-0-0-0-0-0|x
 x|-1-1-3-0-0-0-0-0-0-0-0|x

"The sun goes down...."
 
 x|-----------------------------------------|x
 x|-----------------------------------------|x
 x|-----------------------------------------|x <---- Play 7 times
 x|-8-88-8-8-8/10-10-1010-55-5-5-55-5-5-5-5-|x
 x|-8-88-8-8-8/10-10-1010-55-5-5-55-5-5-5-5-|x
 x|-8-88-8-8-8/10-10-1010-55-5-5-55-5-5-5-5-|x

The song ends with:
 
 x|--------------|x
 x|--------------|x
 x|--------------|x
 x|-1-1-3-0-0-0--|x
 x|-1-1-3-0-0-0--|x
 x|-1-1-3-0-0-0--|x

Yeah that's all.

Important: The song above is NOT stored on the Chordie server. The original song is hosted at www.xguitar.com. Chordie works as a search engine and provides on-the-fly formatting. Chordie does not index songs against artists'/composers' will. To remove this song please click here.

Text color:
Chord color:
Chord grids: 
Font size:    
Page size: 

A# C# D# F# G#
Rate #3 of 4 versions

Jango Player

Login - add to songbook

SHARE PAGE  




You need to log in to post comments