Guitar Tabs, Chords and Lyrics
Server problems seems to be fixed. Chordie has been experiencing problems with songs disappearing. These issues now seems to be fixed, but still verifying the fix. If you find anything strange, please email admin@chordie.com.


Monday  The Living End

Monday
Tabbed by Mick Fryar
manumick20@yahoo.com
ICQ-67053832
^=bend
v=bring bend back down
s=slide
h=hammer on
p=pull off
full= bend is a full step
half=bend is a half step
()=put finger on note but dont pluck the note
Verse:
[E] [E] [B]  
 
 e-----------------------------------------|
 b-----------------------------------------|
 g-9--9------------------------------9-----|
 d-9--9------------------------------9--9--|
 a-7--7-7-7-7-7-7-7-7-7-7-7-7-7-7----7--9--|
 e--------------------------------------7--|

/ p a l m m u t e d.....\
[B] [A]  
 
 e----------------------------------|
 b----------------------------------|
 g----------------------------------|
 d----------------------------9--7--|
 a----------------------------9--7--|
 e-7-7-7-7-7-7-7-7-7-7-7-7-7--7--5--|

/ p a l m m u t e d....\
[A] [B]  
 
 e----------------------------------|
 b----------------------------------|
 g----------------------------------|
 d----------------------------7--9--|
 a----------------------------7--9--|
 e-5-5-5-5-5-5-5-5-5-5-5-5-5--5--7--|

/ p a l m m u t e d....\
 
 e----------------------------|
 b----------------------------|
 g----------------------------|
 d----------------------------|
 a----------------------------|
 e-7-7-7-7-7-7-7-7-7-7-7-7-7--|

/ p a l m m u t e d....\
[E] [E] [B]  
 
 e-----------------------------------------|
 b-----------------------------------------|
 g-9--9------------------------------9-----|
 d-9--9------------------------------9--9--|
 a-7--7-7-7-7-7-7-7-7-7-7-7-7-7-7----7--9--|
 e--------------------------------------7--|

/ p a l m m u t e d.....\
[B] [A]  
 
 e----------------------------------|
 b----------------------------------|
 g----------------------------------|
 d----------------------------9--7--|
 a----------------------------9--7--|
 e-7-7-7-7-7-7-7-7-7-7-7-7-7--7--5--|

/ p a l m m u t e d....\
[A] [B]  
 
 e----------------------------------|
 b----------------------------------|
 g----------------------------------|
 d----------------------------7--9--|
 a----------------------------7--9--|
 e-5-5-5-5-5-5-5-5-5-5-5-5-5--5--7--|

/ p a l m m u t e d....\
 
 e----------------------|
 b----------------------|
 g----------------------|
 d----------------9--9--|
 a----------------9--9--|
 e-7-7-7-7-7-7-7--7--7--|

/ p a l m m u t e d....\
[E] [B] [A]  
 
 e----------------------------------------------------|
 b----------------------------------------------------|
 g-9-9-9-9-9-9-9-9------------------------------------|
 d-9-9-9-9-9-9-9-9--9-9-9-9-9-9-9-9--7-7-7-7-7-7-7-7--|
 a-7-7-7-7-7-7-7-7--9-9-9-9-9-9-9-9--7-7-7-7-7-7-7-7--|
 e------------------7-7-7-7-7-7-7-7--5-5-5-5-5-5-5-5--|

[B]  
 
 e------------------|
 b------------------|
 g------------------|
 d-9-9-9-9-9-9-9-9--|
 a-9-9-9-9-9-9-9-9--|
 e-7-7-7-7-7-7-7-7--|

[E] [B] [A]  
 
 e----------------------------------------------------|
 b----------------------------------------------------|
 g-9-9-9-9-9-9-9-9------------------------------------|
 d-9-9-9-9-9-9-9-9--9-9-9-9-9-9-9-9--7-7-7-7-7-7-7-7--|
 a-7-7-7-7-7-7-7-7--9-9-9-9-9-9-9-9--7-7-7-7-7-7-7-7--|
 e------------------7-7-7-7-7-7-7-7--5-5-5-5-5-5-5-5--|

[B]  
 
 e------------------|
 b------------------|
 g------------------|
 d-9-9-9-9-9-9-9-9--|
 a-9-9-9-9-9-9-9-9--|
 e-7-7-7-7-7-7-7-7--|

Bridge:
[C#m] [G#] [F#m] [G#] [A] [B]  
 
 e-4-4-4-4--4-4-4-4--2-2-2-2--4-4-4-4----------|
 b-5-5-5-5--4-4-4-4--2-2-2-2--4-4-4-4----------|
 g-6-6-6-6--5-5-5-5--2-2-2-2--5-5-5-5--2--4-4--|
 d-6-6-6-6--6-6-6-6--4-4-4-4--6-6-6-6--2--4-4--|
 a-4-4-4-4--6-6-6-6--4-4-4-4--6-6-6-6--0--2-2--|
 e----------4-4-4-4--2-2-2-2--4-4-4-4----------|

Chorus:
[E] [A] [B]  
 
 e------------------|
 b-5-5-5-5----------|
 g-4-4-5-5--2--4-4--|
 d-2-2-2-2--2--4-4--|(x2)
 a----------0--2-2--|
 e------------------|

[A] [B] [E] [D#] [C#] [B]  
 
 e-----------------------------------------|
 b-------------------5-5-5-5--4------------|
 g-2-2-2-2--4-4-4-4--4-4-4-4--3--6-6--4-4--|
 d-2-2-2-2--4-4-4-4--2-2-2-2--1--6-6--4-4--|
 a-0-0-0-0--2-2-2-2--------------4-4--2-2--|
 e-----------------------------------------|

[A] [B] [E]  
 
 e-------------------0--|
 b-------------------0--|
 g-2-2-2-2--4-4-4-4--1--|
 d-2-2-2-2--4-4-4-4--2--|
 a-0-0-0-0--2-2-2-2--2--|
 e-------------------0--|

Verse *not exactly the same as before but listen
carefully and play the parts as many times
as needed. Everything is outlined further up*
Bridge
Chorus
Pre Solo:
[C#] [C]  
 
 e-4-4----------4-4--------4----------------|
 b-----5-5----------5-5---------------------|
 g---------6-6----------6-----5-5-5--5-5-5--|
 d----------------------------5-5-5--5-5-5--|
 a----------------------------3-3-3--3-3-3--|
 e------------------------------------------|

[C#] [G#]  
 
 e-4-4----------4-4--------4--------------------------|
 b-----5-5----------5-5-------------------------------|
 g---------6-6----------6-----------------------------|
 d----------------------------6-6-6--6-6-6-pickslide--|
 a----------------------------6-6-6--6-6-6-pickslide--|
 e----------------------------4-4-4--4-4-4-pickslide--|

[A] [B] [E] [D#] [C#] [B]  
 
 e-----------------------------------------|
 b-------------------5-5-5-5--4------------|
 g-2-2-2-2--4-4-4-4--4-4-4-4--3--6-6--4-4--|
 d-2-2-2-2--4-4-4-4--2-2-2-2--1--6-6--4-4--|
 a-0-0-0-0--2-2-2-2--------------4-4--2-2--|
 e-----------------------------------------|

[A] [B]  
 
 e--------------------------------|
 b---------------------------12---|
 g---------------------------11^--|
 d-7-7-7-7-7-7-7-7--9-9-9-9-------|
 a-7-7-7-7-7-7-7-7--9-9-9-9-------|
 e-5-5-5-5-5-5-5-5--7-7-7-7-------|

*
[E] [A] [B]  
 
 e-----------------------------------------------------|
 b-----------------------------------------------------|
 g-------------------2-2---------------4-4-------------|
 d-2-2---------------2-2-----2h4p2-----4-4-----4h6p4---|
 a-2-2-----2h4p2p0---0-0-2s4-------4---2-2-4s6-------6-|
 e-0-0-2s4---------------------------------------------|

[C] [D]  
 
 e-----------|
 b-----------|
 g-5-5--7-7--|
 d-5-5--7-7--|repeat from *
 a-3-3--5-5--|
 e-----------|

Solo: *over verse*
E full full full half
 
 e-------------------------------:------------------------------|
 b--9----9-----------------------:------------------------------|
 g--11^--11^--11^v-(11)p9--11-9--:--7^--------------------------|
 d-------------------------------:-----9-9----7--9p7---7--------|
 a-------------------------------:-------------------9---s7-5---|
 e-------------------------------:------------------------------|

[A] [B]  
 
 e--------------------------12-9--------:-----------------------------------12--|
 b--------5-7^v-(7)p5--7-5-------11-----:--0-0-4-0-0-5-0-0-7-0-0-8-0-0-9h12-----|
 g-----s6---------------------------10--:---------------------------------------|
 d--------------------------------------:---------------------------------------|
 a--0-----------------------------------:---------------------------------------|
 e--------------------------------------:---------------------------------------|

this next bit is hard for timing. Gotta play real fast and keep the
six beat feel
[E]  
 
 e---14p12----16p12-----14p12----16p12-----14p12----16p12----14p12----16p12-----|
 b---------12-------12--------12-------12--------12-------12-------12-------12--|
 g------------------------------------------------------------------------------|
 d------------------------------------------------------------------------------|
 a------------------------------------------------------------------------------|
 e------------------------------------------------------------------------------|

Bfull full full A
 
 e------14------14---------------------:------12------12------12------12--------------|
 b--14^-----14^-----14^v(14)p12-14-12--:----------------------------------------------|
 g-------------------------------------:--14^-----14^-----14^-----14^----14p12--------|
 d-------------------------------------:---------------------------------------14-14--|
 a-------------------------------------:----------------------------------------------|
 e-------------------------------------:----------------------------------------------|

[B]  
 
 e--7p6p4-6p4p2-4p2p0-2p0-----------------s--|
 b------------------------4-5p4p2-4p2p0---s--|
 g----------------------------------------s--|
 d----------------------------------------s--|
 a----------------------------------------s--|
 e-------------------------------------------|
 e--0-0-0-0-0----------|
 b--4s5-5s4-2-----2-4--|
 g------------4-2-2-4--|
 d---------------------|(x2)
 a---------------------|
 e---------------------|

[A] [B]  
 
 e-------------------|
 b----2------4-------|
 g------2------4-----|
 d---------------4---|
 a--0------2---------|
 e-------------------|

[E] [EbC#m] [B] [A] [B]  
 
 e------4------------------------|
 b------5------------------------|
 g--9-8-6-4-4---2-2-2-2-4-4-4-4--|
 d--9-8-6-4-4---2-2-2-2-4-4-4-4--|
 a--7-6-4-2-2---0-0-0-0-2-2-2-2--|
 e-------------------------------|

Bridge
Chorus *play last section twice*
Listen if you dont know what I mean.
Everything you need is above.*
End:
[B] [E]  
 
 e--------------0--|
 b--------------0--|
 g-4--4--4------1--|
 d-4--4--4------2--|
 a-2--2--2------2--|
 e----------3^--0--|

Tabbed By Mick Fryar
manumick20@yahoo.com
Icq-67053832

Important: The song above is NOT stored on the Chordie server. The original song is hosted at www.xguitar.com. Chordie works as a search engine and provides on-the-fly formatting. Chordie does not index songs against artists'/composers' will. To remove this song please click here.

Text color:
Chord color:
Chord grids: 
Font size:    
Page size: 

A B C C# C#m D D# E F#m G#
Rate #2 of 6 versions

Jango Player

Login - add to songbook

SHARE PAGE  




You need to log in to post comments