Guitar Tabs, Chords and Lyrics
Server problems seems to be fixed. Chordie has been experiencing problems with songs disappearing. These issues now seems to be fixed, but still verifying the fix. If you find anything strange, please email admin@chordie.com.


One Said to the Other  The Living End

One Said To The Other as recorded by The Living End
Intro Chorus
[D5] [A] [C#] 
[4/4] Gtr I
 
 |-----------------|------------------------||----------------|
 |-3-3-3-3-3-3-3-3-|-3-3-3-(3)-3-3-3-3------||----2-0-6-6-6---|
 |-2-2-2-2-2-2-2-2-|-2-2-2-(2)-2-2-2-2------||-2--2-0-6-6-6-0-|
 |-0-0-0-0-0-0-0-0-|-0-0-0-(0)-0-0-0-0------||-2--2-0-6-6-6-0-|
 |-0-0-0-0-0-0-0-0-|-0-0-0-(0)-0-0-0-0------||-0--0-0-4-4-4-0-|
 |-----------------|-------------------12\--||--------4-4-4---|

[F#5] [D] [F#5] [E5] [A] [C#] [F#5] [D]  
 
 |----------------|-----------------|----------------|-----------------|
 |-7--7-0-7-7-7---|-7-7-7---5-5-5---|----2-0-6-6-6---|-7--7-0-7-7-7----|
 |-6--6-0-7-7-7-0-|-6-6-6-0-4-4-4-0-|-2--2-0-6-6-6-0-|-6--6-0-7-7-7-0--|
 |-4--4-0-7-7-7-0-|-4-4-4-0-2-2-2-0-|-2--2-0-6-6-6-0-|-4--4-0-7-7-7-0--|
 |-4--4-0-5-5-5-0-|-4-4-4-0-2-2-2-0-|-0--0-0-4-4-4-0-|-4--4-0-5-5-5-0--|
 |--------5-5-5---|-----------------|--------4-4-4---|--------5-5-5----|

F#5 C#m E5 N.C.
PM
 
 |----------------|-------------|-------------------------------------||
 |-7--7---5-5-5---|-------------|-------------------------------------||
 |-6--6-0-6-6-6-0-|-------------|------------------------------9-(9)\-||
 |-4--4-0-6-6-6-0-|-2-2---2-2---|------------------------------9-(9)\-||
 |-4--4-0-4-4-4-0-|-2-2---2-2---|-2s5-4h5p4--------------------7-(7)\-||
 |--------4-4-4---|-0-0---0-0---|-----------7-5-4b5==(4)r(4)-0--------||

Verse
$
[A] [C#m] [F#m] [D] [A] [C#m] [F#5E5] [A5]  
 
 |-----------4--|-----2---------|------------4--|-----------------------|
 |----2------5--|-----2------7--|-----2------5--|-7--5-----2-(2)pb3-(2)-|
 |----2------6--|-----2------7--|-----2------6--|-6--4--2---------------|
 |----2------6--|-----4------7--|-----2------6--|-4--2--2---------------|
 |--x----x-x----|-x-x----x-x----|-x-x----x-x----|----2--0---------------|
 |--------------|---------------|---------------|-----------------------|

[A] [C#m] [F#m] [D] [A] [C#m] [F#5E5] [A5]  
 
 |------------4--|-----2---------|------------4--|-----------------||
 |-----2------5--|-----2------7--|-----2------5--|-7--5------------||
 |-----2------6--|-----2------7--|-----2------6--|-6--4--2--(2)/---||
 |-----2------6--|-----4------7--|-----2------6--|-4--2--2--(2)/---||
 |-x-x----x-x----|-x-x----x-x----|-x-x----x-x----|----2--0---------||
 |---------------|---------------|---------------|-----------------||

Pre-Chorus
[F#] PM PM PM PM PM PM PM PM
 
 |---------------------|---------------------|
 |---------------------|---------------------|
 |-11---11---11---11---|-11---11---11---11---|
 |---------------------|---------------------|
 |----9----9----9----9-|----9----9----9----9-|
 |---------------------|---------------------|

PM PM PM[D5]
 
 |----------------------|----------------|
 |----------------------|-3---3-(3)--3---|
 |-11---11---11---11\---|-2---2-(2)--2---|
 |----------------------|-0---0-(0)--0---|
 |----9----9----9-------|-0---0-(0)--0---|
 |--------------------0-|----------------|

Chorus
[A] [C#] [F#5] [D]  
 
 |--------------------------||----------------|----------------|
 |-3-3-3-(3)-3-3-3-3-3------||----2-0-6-6-6---|-7--7-0-7-7-7---|
 |-2-2-2-(2)-2-2-2-2-2------||-2--2-0-6-6-6-0-|-6--6-0-7-7-7-0-|
 |-0-0-0-(0)-0-0-0-0-0------||-2--2-0-6-6-6-0-|-4--4-0-7-7-7-0-|
 |-0-0-0-(0)-0-0-0-0-0-12\--||-0--0-0-4-4-4-0-|-4--4-0-5-5-5-0-|
 |---------------------12\--||--------4-4-4---|--------5-5-5---|

[F#5] [E5] [A] [C#] [F#5] [D]  
 
 |-----------------|----------------|----------------|
 |-7-7-7---5-5-5---|----2-0-6-6-6---|-7--7-0-7-7-7---|
 |-6-6-6-0-4-4-4-0-|-2--2-0-6-6-6-0-|-6--6-0-7-7-7-0-|
 |-4-4-4-0-2-2-2-0-|-2--2-0-6-6-6-0-|-4--4-0-7-7-7-0-|
 |-4-4-4-0-2-2-2-0-|-0--0-0-4-4-4-0-|-4--4-0-5-5-5-0-|
 |-----------------|--------4-4-4---|--------5-5-5---|

To Coda
F#5 C#m E5 N.C.
PM
 
 |----------------|-------------|-------------------------------------||
 |-7--7---5-5-5---|-------------|-------------------------------------||
 |-6--6-0-6-6-6-0-|-------------|------------------------------9-(9)\-||
 |-4--4-0-6-6-6-0-|-2-2---2-2---|------------------------------9-(9)\-||
 |-4--4-0-4-4-4-0-|-2-2---2-2---|-2s5-4h5p4--------------------7-(7)\-||
 |--------4-4-4---|-0-0---0-0---|-----------7-5-4b5==(4)r(4)-0--------||

Interlude
[E5] [C#m]PM|[F#m] [D] [A] [C#m]
 
 |--------------4--|-------2-----------|----------------4-(4)\-|
 |--------------5--|-------2--------7--|-------2--------5-(5)\-|
 |-2------------6--|-------2--------7--|-------2--------6-(6)\-|
 |-2------------6--|-------4--------7--|-------2--------6-(6)\-|
 |-0--12\--4-4-----|--x-x------x-x-----|--x-x------x-x---------|
 |----12\----------|-------------------|-----------------------|

|
| Gtr II
 
 |-----------------|-------------------|-----------------------|
 |-----------------|-------------------|-----------------------|
 |-------------13--|-14---14--14---14--|-14---14--14---14------|
 |-----------------|-------------------|-----------------------|
 |-----------------|-------------------|-----------------------|
 |-----------------|-------------------|-----------------------|

D.S. al Coda
[F#m] [E] [A5]  
 
 |--------------------------------------||
 |-10---9--10-------(10)\---------------||
 |-11---9---9--------(9)\---------------||
 |-11---9-------------------------------||
 |--9-----------------------------------||
 |--------------------------------------||

|
 
 |--------------------------------------||
 |------------------------2-(2)pb3-(2)--||
 |-14--14--14-(14)\---------------------||
 |--------------------------------------||
 |--------------------------------------||
 |--------------------------------------||

Guitar Solo
&
[E5] [F5] [F#G5G#5] Gtr II [A5]Gtr I[G5C#] [G5/AF#5]
| | | | | | | |
o / / / / / / /
Gtr II
 
 |-----------------------||-----------------------------------------|
 |-----------------------||-2----(2)-2-------4b6-4b6-4b6==(4)r(4)-2-|
 |-----------------------||-4b6==(4)-4r(4)-2------------------------|
 |-x-x-2-x-x-3-x-x-4-5-6-||-----------------------------------------|
 |-x-x-2-x-x-3-x-x-4-5-6-||-----------------------------------------|
 |-x-x-0-x-x-1-x-x-2-3-4-||-----------------------------------------|

| | [G5DA]| | || [G5/A]|
[/] [/] [/] [/] [//] [/]  
 
 |-----------------------5-5------|
 |-------5----------5b7----5pb7r==|
 |-4b6==(4)-4r(4)-2---------------|
 |--------------------------------|
 |--------------------------------|
 |--------------------------------|

[A5] | [G5C#]| | | | | [G5/A] | [F#5]| [E5] | [A5]| | | | | | |
[/] [/] [/] [/] [/] [/] [/] [/] [/] [/] [/] [/] [/] [/] [/] [/] 
 
 |-(5)-0---0-------7b9==(7)r-|-7p5------------------------------------|
 |-(5)-2-3---5s7-5-----------|-----7-5--------------------------------|
 |---------------------------|---------4b6==(4)r(4)-2---2-x-x-x-x-----|
 |---------------------------|------------------------4---x-x-x-x-----|
 |---------------------------|----------------------------x-x-x-x-----|
 |---------------------------|------------------------------------9\--|

| | [G5/AC#]| | | | [G5/A] |
[/] [/] [/] [/] [/] [/] [/]  
 
 |---------------------------------------|
 |---------------------------------------|
 |---------------------------------------|

|-7h9h11p7h9h11p7h9h11p7h9h11p7h9h11p7h=|
 
 |---------------------------------------|
 |---------------------------------------|

[F#5]| | [G5/A]| [D]| | | [G5/A]| [A5]| | [G5/AC#]| | | | [G5/AF#5]|
[/] [/] [/] [/] [/] [/] [/] [/] [/] [/] [/] [/] [/] [/] 
~~~~~~
 
 |----------------------------------|----------------------|
 |----------------------------------|----------------------|
 |----------------------------------|------------------2-4-|
 |-9h11p7h9h11p7h9h11p7h9-7-(7)-2h4-|-2------------2-4-----|
 |----------------------------------|----4s2-0-2s4---------|
 |----------------------------------|----------------------|

| [E5] | [A5] | |
[/] [/] [/] [/]  
 
 |-----------------------12----12-14-12--------||
 |------9s10-12p10-12-14----14----------14-12--||
 |-9s11----------------------------------------||
 |---------------------------------------------||
 |---------------------------------------------||
 |---------------------------------------------||

Interlude
[F#] >
 
 |-----------------------|-----------------------------|
 |-----------------------|-----------------------------|
 |-11--------(11)--------|--------------------11b13====|
 |-----------------------|------------------x----------|
 |-----------------------|----------------x------------|
 |-----------------------|-----------------------------|

|
| Gtr I
| PM PM PM PM PM PM PM PM
 
 |-----------------------|-----------------------------|
 |-----------------------|-----------------------------|
 |-11---11----11----11---|-11---11---11-------11-------|
 |-----------------------|-----------------------------|
 |----9----9------9----9-|----9----9----9------------9-|
 |-----------------------|-----------------------------|
 |---------------------------|------------------------||
 |---------------------------|------------------------||
 |-(11)r==(11)--------(11)---|-(11)-------------------||
 |---------------------------|------------------------||
 |---------------------------|------------------------||
 |---------------------------|------------------------||

|
| PM PM PM PM PM PM PM PM
 
 |---------------------------|------------------------||
 |---------------------------|------------------------||
 |--11-----11----11----11----|--11----11---11---11----||
 |---------------------------|------------------------||
 |------9------9----9------9-|------9----9----9----9--||
 |---------------------------|------------------------||

Pre-Chorus
[F#]  
 
 |-----------------------|-----------------------|
 |-----------------------|-----------------------|
 |-(11)------------------|-(11)------------------|
 |-----------------------|-----------------------|
 |-----------------------|-----------------------|
 |-----------------------|-----------------------|

|
| PM PM PM PM PM PM PM PM
 
 |-----------------------|-----------------------|
 |-----------------------|-----------------------|
 |--11----11---11---11---|--11----11---11---11---|
 |-----------------------|-----------------------|
 |------9----9----9----9-|------9----9----9----9-|
 |-----------------------|-----------------------|
 |-----------------------|----------|-------------------||
 |-----------------------|-3--------|-(3)---------------||
 |-(11)------------------|-2--------|-(2)------7-(7)\---||
 |-----------------------|-0--------|-(0)------7-(7)\---||
 |-----------------------|-0--------|-(0)------5--------||
 |-----------------------|----------|-------------------||

|
| PM PM PM PM
 
 |-----------------------|----------|-------------------||
 |-----------------------|----------|-------------------||
 |--11----11---11---11---|----------|-------------------||
 |-----------------------|----------|-------------------||
 |------9----9----9----9-|----------|-------------------||
 |-----------------------|----------|-------------------||

Verse
[A] [C#m] [F#m] [D] [A] [C#m] [F#5E5] 
PM| PM| PM| PM| PM| PM|[2/4]
 
 |-------------4-4-|-----2-2---------|-------------4-4-|-------|
 |-----2-2-----5-5-|-----2-2-----7-7-|-----2-2-----5-5-|-7--5--|
 |-----2-2-----6-6-|-----2-2-----7-7-|-----2-2-----6-6-|-6--4--|
 |-----2-2-----6-6-|-----4-4-----7-7-|-----2-2-----6-6-|-4--2--|
 |-0-0-----4-4-----|---------5-5-----|-0-0-----4-4-----|----2--|
 |-----------------|-2-2-------------|-----------------|-------|

[A] [C#m] [F#m] [D] [A] [C#m] [F#5E5] [A5] 
[4/4] PM| PM| PM| PM| PM| PM|
 
 |-------------4-4-|-----2-2---------|-------------4-4-|----------------||
 |-----2-2-----5-5-|-----2-2-----7-7-|-----2-2-----5-5-|-7--5-----------||
 |-----2-2-----6-6-|-----2-2-----7-7-|-----2-2-----6-6-|-6--4--2--(2)/--||
 |-2-2-2-2-----6-6-|-----4-4-----7-7-|-2-2-2-2-----6-6-|-4--2--2--(2)/--||
 |-0-0-----4-4-----|-4-4-----5-5-----|-0-0-----4-4-----|----2--0--------||
 |---------4-4-----|-2-2-----5-5-----|---------4-4-----|----------------||

Pre-Chorus
[F#] PM PM PM PM [F#] PM PM PM
6x
 
 ||-----------------------||----------------------|
 ||o---------------------o||----------------------|
 ||--11---11---11---11----||-11---11---11---11\---|
 ||-----------------------||----------------------|
 ||o----9----9----9----9-o||----9----9----9-------|
 ||-----------------------||--------------------0-|

[D]  
 
 |---------------|---------------------------||
 |-3---3-(3)--3--|-3-3-3-(3)-3-3-3-3-3-------||
 |-2---2-(2)--2--|-2-2-2-(2)-2-2-2-2-2-------||
 |-0---0-(0)--0--|-0-0-0-(0)-0-0-0-0-0-------||
 |-0---0-(0)--0--|-0-0-0-(0)-0-0-0-0-0-12\---||
 |---------------|---------------------12\---||

Chorus
[A] [C#] [F#5] [D] [F#5] [E5]  
 
 ||-----------------|----------------|-----------------|
 ||o----2-0-6-6-6---|-7--7-0-7-7-7---|-7-7-7---5-5-5---|
 ||--2--2-0-6-6-6-0-|-6--6-0-7-7-7-0-|-6-6-6-0-4-4-4-0-|
 ||--2--2-0-6-6-6-0-|-4--4-0-7-7-7-0-|-4-4-4-0-2-2-2-0-|
 ||o-0--0-0-4-4-4-0-|-4--4-0-5-5-5-0-|-4-4-4-0-2-2-2-0-|
 ||---------4-4-4---|--------5-5-5---|-----------------|

[A] [C#] [F#5] [D] [F#5] [C#m]  
 
 |----------------|----------------|----------------|
 |----2-0-6-6-6---|-7--7-0-7-7-7---|-7--7---5-5-5---|
 |-2--2-0-6-6-6-0-|-6--6-0-7-7-7-0-|-6--6-0-6-6-6-0-|
 |-2--2-0-6-6-6-0-|-4--4-0-7-7-7-0-|-4--4-0-6-6-6-0-|
 |-0--0-0-4-4-4-0-|-4--4-0-5-5-5-0-|-4--4-0-4-4-4-0-|
 |--------4-4-4---|--------5-5-5---|--------4-4-4---|

1. 2.
E5 E5 N.C.
[2/4] [4/4] PM
 
 |-----------||-------------|--------------------------------------|
 |----------o||-------------|--------------------------------------|
 |-----------||-------------|------------------------------9-(9)\--|
 |-2-2-------||-2-2---2-2---|------------------------------9-(9)\--|
 |-2-2------o||-2-2---2-2---|-2s5-4h5p4--------------------7-(7)\--|
 |-0-0-24\---||-0-0---0-0---|-----------7-5-4b5==(4)r(4)-0---------|

[E5] [F5] [F#G5G#5] [A5]  
 
 |-------------|-----------------------|-------------*|
 |-------------|-----------------------|-------------*|
 |-------------|-----------------------|-------------*|
 |-2-2---2-2---|-x-x-2-x-x-3-x-x-4-5-6-|-7-----------*|
 |-2-2---2-2---|-x-x-2-x-x-3-x-x-4-5-6-|-7--12\------*|
 |-0-0---0-0---|-x-x-0-x-x-1-x-x-2-3-4-|-5--12\------*|


Important: The song above is NOT stored on the Chordie server. The original song is hosted at www.xguitar.com. Chordie works as a search engine and provides on-the-fly formatting. Chordie does not index songs against artists'/composers' will. To remove this song please click here.

Text color:
Chord color:
Chord grids: 
Font size:    
Page size: 

A A5 C# C#m D D5 E E5 F# F#5 F#m F5 G5/A
Rate #1 of 2 versions

Login - add to songbook

SHARE PAGE  




You need to log in to post comments