Guitar Tabs, Chords and Lyrics
Major upgrade!! After one year development the new version of Chordie is now online! Please give feedback.


Searching  Lynyrd Skynyrd

Guitar 1
 
 |------------------------7-------7~~~~-10-12b14r12-10-12-12b14-12b14~~|
 |------------------7---7---7--10--------------------------------------|
 |-9b11-r9-p7-------9b11-----------------------------------------------|
 |-------------9~~-----------------------------------------------------|
 |---------------------------------------------------------------------|
 |---------------------------------------------------------------------|

Guitar 2
 
 |--14--------------------------------------|---------------------|
 |--17b19-r17-p14--17-15--------------------|---------------------|
 |-----------------------16b18-r16-14-16-14-|---------------------|
 |------------------------------------------|--2p0----------------|
 |------------------------------------------|------2p0--2---------|
 |------------------------------------------|---------------------|

then these chord over the verse in this order:
 
 +-+-+-+-+-+ +-+-+-+-+-+ +-+-+-+-+-+ +-+-+-+-+-+

7 o | | | | | 10 o | | | | | 5 o | | | | | 12 o | | | | |
 
 +-+-+-+-+-+ +-+-+-+-+-+ +-+-+-+-+-+ +-+-+-+-+-+

8 | | | | | | 11 | | | | | | 6 | | | | | | 13 | | | | | |
 
 +-+-+-+-+-+ +-+-+-+-+-+ +-+-+-+-+-+ +-+-+-+-+-+

9 | o o | | | 12 | o o | | | 7 | o o | | | 14 | o o | | |
 
 +-+-+-+-+-+ +-+-+-+-+-+ +-+-+-+-+-+ +-+-+-+-+-+

[B5] [D5] [A5] [E5] 
with slide:
 
 |---------------------------------------------------------------|
 |---------------------------------------------------------------|
 |---------------------------------------------------------------|
 |--12-9--9-11-11-12-12-14--9--9-21~~----------------------------|
 |---------------------------------------------------------------|
 |---------------------------------------------------------------|

solo:
Guitar 1
 
 |--14p10---------------10---------------17b19-17b19-17b19-------|
 |---------12-12--10-12-----17b19-r17-15-------------------------|
 |---------------------------------------------------------------|
 |---------------------------------------------------------------|
 |---------------------------------------------------------------|
 |---------------------------------------------------------------|
 |-17b19p14----------17b19p14--17b19--17b19--------|
 |-------------------------------------------------|
 |----------16-16-14-------------------------------|
 |-------------------------------------------------|
 |-------------------------------------------------|
 |-------------------------------------------------|
 |------------14--------14-------14--------14-------14--17b19-17b19~|
 |------17b19-----17b19----17b19-----17b19----17b19-----------------|
 |-6/16-------------------------------------------------------------|
 |------------------------------------------------------------------|
 |------------------------------------------------------------------|
 |------------------------------------------------------------------|

Guitar 2
 
 |-10--7------7-----------------------------------------------------|
 |-------7-10----12/10p7-------------------------------------------7|
 |------------------------11b13r11-p9--7-9-7-----9b11--7----7-9b11--|
 |-------------------------------------------9-----------9----------|
 |------------------------------------------------------------------|
 |------------------------------------------------------------------|
 |---------------------------------10b12-10-7----7------7--7/5--|
 |--7-------7---------------------------------10---7-10---------|
 |--9b11---(11)---9-7--9-7-------7------------------------------|
 |-------------------------9------------------------------------|
 |--------------------------------------------------------------|
 |--------------------------------------------------------------|
 |-------7------7-----7-------7---------7-----------------------|
 |--7h10---7h10---7h10---7h10-----10b12----10--7-----------7----|
 |-----------------------------------------------9-7---9-7----9-|
 |--------------------------------------------------------------|
 |--------------------------------------------------------------|
 |--------------------------------------------------------------|

end of solo
 
 |--------------------------------------------------------------|
 |------7------7------------------------------------------------|
 |--7-9---9-7-------------------9-7-9b11r9p7--------------------|
 |---------------------------------------9----------------------|
 |--------------------------------------------------------------|
 |--------------------------------------------------------------|

with slide:
Guitar 1
 
 |-------------------------------------------------------------|
 |-------------------------------10----------------------------|
 |----------------------------11----11-9-7-16~~~---------------|
 |--11-9-12-11-12-14-14-12-16----------------------------------|
 |-------------------------------------------------------------|
 |-------------------------------------------------------------|

then the same chords over the verse
 
 +-+-+-+-+-+ +-+-+-+-+-+ +-+-+-+-+-+ +-+-+-+-+-+

7 o | | | | | 10 o | | | | | 5 o | | | | | 12 o | | | | |
 
 +-+-+-+-+-+ +-+-+-+-+-+ +-+-+-+-+-+ +-+-+-+-+-+

8 | | | | | | 11 | | | | | | 6 | | | | | | 13 | | | | | |
 
 +-+-+-+-+-+ +-+-+-+-+-+ +-+-+-+-+-+ +-+-+-+-+-+

9 | o o | | | 12 | o o | | | 7 | o o | | | 14 | o o | | |
 
 +-+-+-+-+-+ +-+-+-+-+-+ +-+-+-+-+-+ +-+-+-+-+-+

[B5] [D5] [A5] [E5] 
before the solos at the end they throw this in every once in a while=20
with the chords
 
 |-------------------------------------------------------------|
 |-------------------------------------------------------------|
 |-------------------------------------------------------------|
 |--2p0--------------------------------------------------------|
 |------2p0-2--------------------------------------------------|
 |-------------------------------------------------------------|

just before the solo comes this:
 
 |-------------------------------------------------------------|
 |-------------------------------------------------------------|
 |-------------------------------------------------------------|
 |-2-2-2p0-----------------------------------------------------|
 |---------2---------------------------------------------------|
 |-------------------------------------------------------------|

then more soloing similar to the first ones
 
 |----7----7---------------------------------------------------|
 |--7---10-----------------------------------------------------|
 |-------------------------------------------------------------|
 |-------------------------------------------------------------|
 |-------------------------------------------------------------|
 |-------------------------------------------------------------|


Important: The song above is NOT stored on the Chordie server. The original song is hosted at www.xguitar.com. Chordie works as a search engine and provides on-the-fly formatting. Chordie does not index songs against artists'/composers' will. To remove this song please click here.

Text color:
Chord color:
Chord grids: 
Font size:    
Page size: 

A5 B5 D5 E5
Rate #7 of 8 versions

Jango Player

Login - add to songbook

SHARE PAGE  




You need to log in to post comments