Guitar Tabs, Chords and Lyrics
Major upgrade!! After one year development the new version of Chordie is now online! Please give feedback.


I Never Dreamed  Lynyrd Skynyrd

(written by Steven Gaines)
Tuning normal.
Key: h hammer on () ghost
s slide p pull off
Riff 1
Let ring . . . . . .
Bb C Bb F |
 
 --------------------|-------------||
 --------------------|-------------||
 -----3-----5----3---|-3-----------||
 -----3-----5----3---|-3------3----||
 -----1p0---3----1p0-|-1p0----3----||
 ---------3----------|-----3--1----||

Riff 2
(rhythm)
[Bb] [C] [Dmi]  
 
 --------------------|--1-----------||
 --------------------|--6-----------||
 ---3------5---------|--7-----------||
 ---3------5---------|--7-----------||
 ---1p0----3---------|--5-----------||
 -------3------------|--------------||

Riff 3
(rhythm)
[Bb] [C] [Dmi] [Ami]  
 
 --------------------|--5------5----||
 --------------------|--6------5----||
 ---3------5---------|--7------5----||
 ---3------5---------|--7------7----||
 ---1p0----3---------|--5------7----||
 -------3------------|---------5----||

Riff 4
[Bb] [F] [F5]  
 
 ------------------------------||
 ------------------------------||
 ----3---(2)-------------------||
 ---3----3------3----------0s--||
 --1----0-------3----0h1-3---5-||
 ------------3--1--------------||

Riff 5 - right hand "harph" playing
Let ring . . . . . . . . . . .
Bb F F5 |
 
 -------------------1---------||
 -----------------------------||
 ----3---2--0------2----------||
 ---3---3---------3-----------||
 --1---0---------3------------||
 ---------3-----1-------------||

Intro: Riff1 G# Bb F (Dmi)
Riff1 G# Bb F (Dmi)
Riff1 G# Bb F (Dmi)
Riff1 G# C
Riff2 Riff3
Riff4
[Dmi] [Ami] [Bb] [F] 
[Dmi]Dmi [C]C [Bb]Riff5 [C]Riff5
[Bb] [C#] [F] [Dmi7]  
Verse: Riff1
My daddy told me always be strong son
Don[G#]'t you[Bb] ever cry[F]
Riff1
You find the pretty girls and then you love them
The[G#]n you say goodbye[C]
Riff2
I never dreamed that you would leave me
Riff2
But now you're gone
Riff3
I never dreamed that I would miss you
Riff5
Woman won't you come back home
[Bb] [C] [F] [Dmi7]  
[Bb] [C] [F] [Dmi7]  
I never dreamed that you could hurt me
And leave me blue
I've had a thousand, maybe more
But never one like you
I never dreamed I could feel so empty
But now I'm down
I never dreamed that I would beg you
Woman I need you now
[Bb] [C] [F] [Dmi7]  
It [Dmi]seems to me I t[Ami]ook your love for gra[Bb]nted[F]
It [Dmi]feels to me tha[Ami]t this time I was wro[Bb]ng, so wr[C]ong
Oh [Dmi]Lord now I feel[Ami] so lonely[Bb] [F]
[Dmi]I say woman won[G]'t you come back home[C] [Bb] [C]
Solo: Dmi C Bb F
[Dmi] [C] [Bb] [C] 
[Dmi]Dmi [C]C [Bb]Riff5 [F]Riff5
[Bb] [C] [F] [Dmi7]  
I tried to do what my daddy taught me
But I think he knew
Someday that I would find one woman like you
I never dreamed that it could feel so good, Lord
That two could be one
I never knew about sweet love
Riff5
So woman won't you come back home
Riff5
Oh baby won't you come back home
Riff5
Solo: Riff1 G# Bb F
Riff1 G# Bb F
Riff1 G# Bb F
Riff1 G# C
Riff2 Riff3
Riff5
Fade out:
Riff1 G# Bb F

Important: The song above is NOT stored on the Chordie server. The original song is hosted at www.xguitar.com. Chordie works as a search engine and provides on-the-fly formatting. Chordie does not index songs against artists'/composers' will. To remove this song please click here.

Text color:
Chord color:
Chord grids: 
Font size:    
Page size: 

Bb C C# F F5 G G#
Rate #5 of 7 versions

Login - add to songbook

SHARE PAGE  




You need to log in to post comments