Guitar Tabs, Chords and Lyrics
Major upgrade!! After one year development the new version of Chordie is now online! Please give feedback.


That Smell  Lynyrd Skynyrd

As recorded by Lynyrd Skynyrd
Transcribed by kappaz
1 3 3[F] 2 x x x 0 [Am]2 2 1 0 3 x [G5]0 0 3 3 x x 0[G] 0 0 x
Fmaj7/A A5V C G5III
x 0 3 2 1 0 5 7 7 x x x x 3 5 5 5 x 3 5 5 x x x
Bb5 F5 GIII F5VIII
1 1 3 3 x x 1 3 3 x x x 3 5 5 4 3 3 x 8 10 10 x x
G5X AmXII
x 10 12 12 x x x 12 14 14 13 x
Gtr I (E A D G B E) - 'Untitled'
Gtr II (E A D G B E) - 'Untitled'
Gtr III (E A D G B E) - 'Untitled'
Gtr IV (E A D G B E) - 'Untitled'
Gtr V (E A D G B E) - 'Untitled'
Gtr VI (E A D G B E) - 'Untitled'
Intro
 
 |--5\\-----------------------|
 |--5\\-----------------------|
 |--5\\------------5-5--------|
 |--7\\------------5-5-7-5----|
 |--7\\------3-5s7---------7\\-|
 |--5\\--3s5------------------|

|
| Gtr I
 
 |--8\\-----------------------|
 |-10\\-----------------------|
 |--9\\------------5-5--------|
 |----------------5-5-7-5----|
 |----------3-5s7---------7\\-|
 |------3s5------------------|

Q [F] Q Q. [Am]E +W
| | | |
o / / /
E E +Q +E +E E E +Q E E a E E Q
 
 |--------------------------|-------------------------|
 |--------------------------|-------------------------|
 |---7b9==(7)---(7)r(7)-5---|-------------------------|
 |------------------------7-|-(7)--5------------------|
 |--------------------------|----------7s5-3----------|
 |--------------------------|------------------5------|

|
| Q E E E E E E +Q E E E S S S S E
 
 |---------1----------------|-------------------------|
 |---------1----------------|------1---------1--------|
 |---------2------------x-2-|-(2)--2-----0-2-2---0----|
 |---------------x------x-2-|-(2)--------0-2----------|
 |-3-------------x---3--x-0-|-(0)------------------2--|
 |-1-------------x---1------|-------------------------|

Q [F] Q Q. [Am]E
| | |
o / /
E E +Q E +E E E
 
 |----------------------------|
 |----------------------------|
 |---7b9-(7)---7b9r(7)-5-7b9==|
 |----------------------------|
 |----------------------------|
 |----------------------------|

|
| Q E E E E E E
 
 |--------1-------------------|
 |--------1-------------------|
 |--------2-------------------|
 |-3----------------2----2----|
 |-3----------------3----0----|
 |----------------------------|

+W Q [F]Q Q. [Am]E
| | | |
/ o / /
+E +E +S +S +S +S +S +S +S +S E E H +H
 
 |-----------------------------------------------------------|---------------------|
 |-----------------------------------------------------------|---------------------|
 |-(7)r(7)b9==(7)r(7)b9==(7)r(7)b9==(7)r(7)b9==(7)r(7)p5-7s==|=14------(14)--------|
 |-----------------------------------------------------------|---------------------|
 |-----------------------------------------------------------|---------------------|
 |-----------------------------------------------------------|---------------------|

|
| ~~~~
| +Q E E e Q S S Q E E E E E E
 
 |-------------0---------------------------------------------|-----1---------------|
 |-------------1---------------------------------------------|-----1---------------|
 |-------------2---------------------0----------2------------|-----2----------x-2--|
 |-(2)-------------------------------0----------2--------2p0-|-----------x----x-2--|
 |-(0)-------------------------------------------------------|--3--------x------0--|
 |-----------------------------------------------------------|--1-----------1------|

+W Q [F] Q Q. [Am]E
| | | |
/ o / /
~~~~~~~~~~
 
 |---3---|

+Q S S E +Q S S S e Q S E. +H
 
 |-------------------------------------------|------------------------|
 |-------13s15s13---(13)---------------------|-----x------------------|
 |-(14)--12s14s12---(12)-------12h14p==12----|----12h14----(14)-------|
 |----------------------------------------14-|------------------------|
 |-------------------------------------------|------------------------|
 |-------------------------------------------|------------------------|

|
| +Q E. S S S S S S S E Q E E E E e E
 
 |-------------------------------------------|-----1------------------|
 |---------------------------1---------------|-----1----------------1-|
 |--(2)---x-------x----------2-------0-------|-----2---------x------2-|
 |--(2)---x-------x---0--2-2-----------------|-2-------------x--3---2-|
 |--(0)------------------------------------2-|-3----------------3---0-|
 |-------------------------------------------|------------------1-0---|

+W W
|
[/]  
~~~~~~ ~~~~~~~~~
+Q +E +E +Q +E +E +E +E +Q +H
 
 |-----------------------------------------|---------------------------------|
 |-----------------------------------------|---------------------------------|
 |-(14)--(14)b16==(14)r(14)--(14)b16==(14)r|=(14)b16==(14)r(14)--(14)--------|
 |-----------------------------------------|---------------------------------|
 |-----------------------------------------|---------------------------------|
 |-----------------------------------------|---------------------------------|

|
| +W +H E. S E E
 
 |-----------------------------------------|---------------------------------|
 |--(1)------------------------------------|--(1)------------------1---------|
 |--(2)------------------------------------|--(2)------------------2--x------|
 |--(2)------------------------------------|--(2)------------------2----0----|
 |--(0)------------------------------------|--(0)------------------0------2--|
 |-----------------------------------------|---------------------------------|

Verses
$
$$
Gtr I
Q E E E E E E +Q E S S S S S S S S E
|----1-------------|--------------------------|
|----1-------------|------1-------------------|
|----2---x---x-----|------2---2-------2---0---|
|-3--3---x---x-2---|-(2)--2-----0h2-2---------|
|-3------------0---|-(0)--------------------2-|
|----------1-------|--------------------------|
|
| Gtr III
| ~~~~~~ PM--|
| Q E E E E e S S Q Q S S E E E
|----1-------------|--------------------------|
|-1--1-------------|--------------------------|
|-2--2-------------|------2-----------------0-|
|-3--3-------------|--------------------x-----|
|-3------------0-0-|--0---------2-2-2---------|
|------1-1-1-1-----|--------------------------|
~~~~~~~~
Q E E E E E E +Q E E e E +E. S
|----1-----------|----------0--------------|
|----1-----------|----------1--------------|
|-2--2---x-----2-|-(2)------2----0-2-(2)p0-|
|-3------x-----2-|-(2)-----------0-2-(2)p0-|
|----------3---0-|-(0)---------------------|
|----------------|-------------------------|
|
| Q Q Q E E S E. +H.
|----------------|--8----------------------|
|----------------|--8h10--(10)-------------|
|-2------------9-|--9----------------------|
|----3---3-------|-------------------------|
|----------------|-------------------------|
|----------------|-------------------------|
~~~~~~~~
Q E E E E E E +Q E S S S S S S S S E
|----1-------------|----------------------------|
|----1-------------|------------------1---------|
|-2--2----x------2-|-(2)--2---2-0-----0-----0---|
|-3-------x----x-2-|-(2)--2-----0h2-2-----------|
|------------3---0-|-(0)----------------------2-|
|------------1-----|----------------------------|
|
| ~~~
| Q Q +Q E E +Q Q E S S +E E
|----1---(1)-------|----------------------------|
|----1---(1)-------|------------------1-(1)-----|
|----2---(2)---x---|------2---------------------|
|-3--3---(3)-------|------------2---x---------2-|
|-3--------------0-|-(0)------------------------|
|------------------|----------------------------|
~~~~~~~~
Q E E E E E E +Q E. S S S E e E
|------------------|-----------------0---|
|----1-------------|-----------------1---|
|----2---x-------2-|-(2)--x--2-x-x-------|
|----3---x--3--x-2-|-(2)--x--2-x-x-------|
|-3---------3----0-|-(0)-----------0-----|
|----------(1)-----|-------------------0-|
|
| Q E E E E E E Q H.
|------------------|---------------------|
|----1-------------|---------------------|
|----2-------------|--2---2--------------|
|-3------3--3--3-2-|--2---2--------------|
|-3------3--3--3-0-|--0------------------|
|------1-----------|---------------------|
1st,2nd and 4th choruses
Gtr III
Q E E Q. E +W
| | | |
o / / /
Gtr I
~~~~~~~~
Q E E E E E E +Q E S S S S S S S S E
|-----------------|------0-------------------|
|----1------------|------1-------------------|
|----2---x------2-|-(2)--2-----2-------------|
|-3--3---x--3---2-|-(2)----x-x-0h2-2-2---0---|
|-3---------3---0-|-(0)--------------------2-|
|-1---------1-----|--------------------------|
Q E E E E E E +H E Q.
| | | | | | |
o / / / / / /
Q E E E E E E +Q e E E Q E
|----------------|------------------|
|----1-----------|------------1---x-|
|----2---x-0---2-|-(2)--2---0-2-----|
|----3---x-0---2-|-(2)--2-x-0-2-----|
|-3--------2---0-|-(0)--0-----------|
|-1--------3-----|------------------|
To Coda
To Coda
Q E E Q. E +W Q E E E E E E +W
| | | | | | | | |
o / / / o / / / /
~~~~~~~~
Q E E E E E E +Q E S S S S S S S S E Q e E E E E E +W
|----1------------|------0-------------------|----1------------|--------|
|----1------------|------1---1-------1-------|-1--1---------1--|-(1)----|
|-2--2---x------2-|-(2)----x---2-----2---0---|-2--2---x-0---2--|-(2)----|
|-3--3---x--3---2-|-(2)----x---0h2-2-2-------|-3------x-0---2--|-(2)----|
|-3---------3---0-|-(0)--------------------2-|-3----3---2---0--|-(0)----|
|-1---------1-----|--------------------------|-1---------------|--------|
1st Solo Section
Gtr III
Q E E E. S Q Q E E Q. E
| | | | | | | | |
/ / / / / / o / /
Gtr II
~
E +E e E +E e S S E Q a E e S +S S S S S S S
|-----------------------------||------------------------------|
|-----------------------------||--------------------------5---|
|-----------------------------||--------5-7b9r(7)p5---5h7---5h|
|-----------------------------||-3--5s7-------------7---------|
|-5b6r(5)-3-5b6r(5)-3---5-3s2-||------------------------------|
|-----------------------------||------------------------------|
|
| Gtr I
| Q Q E. S Q Q E E e E E E
|-----------------------------||------1---1-------------------|
|-1-------1------1----1-1-----||------1---1---------------5---|
|-2-------2------2----2-2-----||------2---2-----------x---5---|
|-2-------2------2----2-2-----||------3---3-----------x---7---|
|-0-------0------0----0-0-----||-3----------------3-------7---|
|-----------------------------||-1----------------1-------5---|
+W
|
/
|--3---|
S S S S S S S S +S S s S S E E
|--------------------------------------------|
|--------------------------------------------|
|--7----5------------------------------------|
|-----7---5h7----5---------------------------|
|--------------7---5b6r(5)-3-----5p3-----3---|
|------------------------------5-----5-------|
|
| +Q E. S S S S S S S E
|------------------5----x----x-------5-5-----|
|-(5)-------5------5----x----x-------5-5-x---|
|-(5)-------5------5----x----x-------5-5-----|
|-(7)-------7--------------------7-7---------|
|-(7)-------7--------------------7-7---------|
|-(5)-------5--------------------------------|
Q E E Q. E
| | |
o / /
|-3-| |---3---|
E E E E a E E +E E S +S S S
|--------------------------8-------------------|
|---------5-6---8b10==(8)-(8)r-8b10r(8)-5------|
|-----5-7---------------------------------7b9==|
|---7------------------------------------------|
|-8--------------------------------------------|
|----------------------------------------------|
|
| Q E E e E E E
|-------1--------------1-----------------------|
|-------1--------------1----------------5------|
|-------2--------------2-------x--------5------|
|-------3--------------3-------x--------7------|
|-3------------------------3------------7------|
|-1------------------------1------------5------|
+W Q E E Q. E
| | | |
/ o / /
~~
+S S E S E S E S S +S S S S S S E Q S S S S s S S S
|-------------------5-------8----------------|-------------8-----10p8----12p8-----|
|------5-----8-------------------------------|---8-10-10------10------10------10--|
|-(7)r---7b9----7b9---7b9-----7pb9r(7)p5---5s|=9----------------------------------|
|----------------------------------------7---|------------------------------------|
|--------------------------------------------|------------------------------------|
|--------------------------------------------|------------------------------------|
|
| +Q E. S S S S S S S E Q E E e E E E
|-------------------5-x---x---------5--5-----|---------1---1----------------------|
|-(5)--------5------5-x---x---------5--5-x---|---------1---1----------------5-----|
|-(5)--------5------5-x---x---------5--5-----|---------2---2-----------x----5-----|
|-(7)--------7--------------7-7--------------|---------3---3-----------x----7-----|
|-(7)--------7--------------7-7--------------|-3------------------3---------7-----|
|-(5)--------5-------------------------------|-1------------------1---------5-----|
+W
|
/
S S s S S S S S S S S S S S S S
|-10p=8---12p8-----10p8---12p8----10p8---12p|
|-------8-------10------8------10------8----|
|-------------------------------------------|
|-------------------------------------------|
|-------------------------------------------|
|-------------------------------------------|
|
| +Q E. S S S S S S S E
|---------------------5-x--x-------5-5------|
|-(5)--------5--------5-x--x-------5-5-x----|
|-(5)--------5--------5-x--x-------5-5------|
|-(7)--------7---------------7--7-----------|
|-(7)--------7---------------7--7-----------|
|-(5)--------5------------------------------|
D.S. al Coda
Q E E Q. E +W
| | | |
o / / /
~~~
S S S S S S S S S S S S +e +S S Q E S S E E E E
|-8----10p8---12p8----10p8---10b12==(10)r(10)-8-|-------------------------------||
|---10------8------10------8--------------------|-10---10------10s==8---8s==6---||
|-----------------------------------------------|----------7s9--9s==7---7s==5---||
|-----------------------------------------------|-------------------------------||
|-----------------------------------------------|-------------------------------||
|-----------------------------------------------|-------------------------------||
|
| Q E E e E E E +Q E. S S S S S S S E
|-----------1----------1------------------------|------------5--x-x-----5-5-----||
|-----------1----------1-------------------5----|-(5)---5----5--x-x-----5-5-x---||
|-----------2----------2--------------x----5----|-(5)---5----5--x-x-----5-5-----||
|-----------3----------3--------------x----7----|-(7)---7-----------7-7---------||
|-3------------------------3---------------7----|-(7)---7-----------7-7---------||
|-1------------------------1---------------5----|-(5)---5-----------------------||
&
Gtr III
W +W
| |
/ /
Gtr I
~~~
W +W
|----------|--------||
|-1--------|-(1)----||
|-2--------|-(2)----||
|-2--------|-(2)----||
|-0--------|-(0)----||
|----------|--------||
Bridge
Gtr I
W W W W
| | | |
/ / / /
Gtr III
E E E E +E. S +E E Q E E +E Q E E E E E +E Q S S W
|-------0-(0)---------|----5------------|-------0-(0)--------|------|
|-----1-------1-(1)---|------5-(5)------|-----1-------1------|-5----|
|---2-----------------|------------5----|---2----------------|-5----|
|-3-----------------3s|=7-------------7s|=3--------------3s7-|------|
|---------------------|-----------------|--------------------|------|
|---------------------|-----------------|--------------------|------|
|
| Gtr IV
| < < < <
| W W W W
|-1-------------------|-0---------------|-1------------------|-0----|
|-1-------------------|-1---------------|-1------------------|-1----|
|-2-------------------|-2---------------|-2------------------|-2----|
|-3-------------------|-2---------------|-3------------------|-2----|
|---------------------|-0---------------|-3------------------|-0----|
|---------------------|-----------------|--------------------|------|
W W
| |
/ /
E E E E +E Q E Q E E E. S +E e
|-------0-(0)------|----5------5-(5)---|
|-----1-------1----|------5-8--------5-|
|---2--------------|-------------------|
|-3--------------3s|=7-----------------|
|------------------|-------------------|
|------------------|-------------------|
|
| < <
| W W
|-1----------------|-0-----------------|
|-1----------------|-1-----------------|
|-2----------------|-2-----------------|
|-3----------------|-2-----------------|
|------------------|-0-----------------|
|------------------|-------------------|
W W W
| |
/ /
Gtrs I, II
E E E E +E Q E W a Q a Q a Q a E e
|-------0-(0)------|-0--------|------------------------||
|-----1-------1----|-1--------|------------------------||
|---2------------2-|-2--------|-0h2--0h2--0h2--0h2-----||
|------------------|-2--------|-0h2--0h2--0h2--0h2-----||
|------------------|-0--------|--------------------2---||
|------------------|----------|------------------------||
|
| < <
| W W W
|-1----------------|-0--------|------------------------||
|-1----------------|-1--------|------------------------||
|-2----------------|-2--------|------------------------||
|-3----------------|-2--------|------------------------||
|-3----------------|-0--------|------------------------||
|------------------|----------|------------------------||
3rd Chourus
Gtr III
Q E E Q. E +W Q E E E E E E
| | | | | | | |
o / / / o / / /
~~~~~~~~
Q E E E E E E +Q E S S S S S S S S E Q E E E E E E
|-----------------|--------------------------|----0-----------|
|----1------------|------1-------------------|----1-----------|
|----2---x--------|------2-x-2-2---------0---|----x-----0---2-|
|-3--3---x--3---2-|-(2)--------0h2-2-2---0---|-3------x-0---2-|
|-3---------3---0-|-(0)--------------------2-|-3----3-3-2---0-|
|-1---------1-----|--------------------------|----------------|
+H E Q. Q E E Q. E
| | | | | |
/ / / o / /
~~~~~~~~~ ~~~
+Q E E E Q +E Q E E E E E E
|---------------------|----1------------|
|---------------------|----1-x-x--------|
|-(2)--2---0-2---(2)\\-|----2---x------2-|
|-(2)--2-x-0-2---(2)\\-|-3---------3---2-|
|-(0)-----------------|-3---------3---0-|
|---------------------|-1---------1-----|
+W Q E E E E E E
| | | | |
/ o / / /
~~~~~
+Q E S S S S S S S S E Q E E E E E E
|------0-x-x---------------|----1-----------|
|------1-x-x-------1-------|----1-----------|
|-(2)--------2-----2---0---|----2-----0---2-|
|-(2)--------0h2-2---------|----------0---2-|
|-(0)--------------------2-|-3----3---2---0-|
|--------------------------|----------------|
2nd Solo Section
+Q. E E E E e Q E E E E E E
| | | | | | | | | | | |
/ / / / / / / / / x / /
Gtr II
~~~~~~~~~~~~~~
Q E. S S E. +Q Q Q +Q E +S S
|--------------8-10b12====(10)r---||-10b12--10b12====(10)r---10b12r(10)p8-|
|-----------10--------------------||--------------------------------------|
|---------------------------------||--------------------------------------|
|---------------------------------||--------------------------------------|
|---------------------------------||--------------------------------------|
|---------------------------------||--------------------------------------|
|
| Gtr I
| +Q E E E E E E Q E E E E E E
|---------------------------------||--------------------------------------|
|---------------------------------||-(1)----------------------------------|
|-(2)--2--------------------------||-(2)---------------x---4---------5----|
|-(2)--2--0----x--------0---x-----||--3------x-----3---x---5--x------7----|
|-(0)-----2-------------2-------0-||--3------x-----3-------5---------7----|
|---------3-------------3---------||--1------------1-------3---------5----|
G5 F
| | | | | | |
/ / / / x / /
S S S S S S S S S S S S S S +E
|-10--10p8----8-8s7---7-7-5---5-----------|
|----------10-------8-------8---8b10-(8)--|
|-----------------------------------------|
|-----------------------------------------|
|-----------------------------------------|
|-----------------------------------------|
|
| Q E E E E E E
|-----------------------------------------|
|-----------------------------------------|
|-(5)-------------------------------------|
|--7----------x-------x-------x-------3---|
|--7----------x---7---x---5---x-------3---|
|--5--------------5-------3-----------1---|
Q E E E E E E
| | | | | |
/ / / x / /
|-3--| |-3-| |-3-|
S S S S S E S S S S S S +S S S S S S
|--5---------------5------------------5---------|
|-----8p5---5-8b10---8p5---5-8b10-(8)---8p5---5-|
|---------7--------------7------------------7---|
|-----------------------------------------------|
|-----------------------------------------------|
|-----------------------------------------------|
|
| Q E E E E E E
|-----------------------------------------------|
|-(1)-------------------------------------------|
|-(2)--------------------x---4--------------5---|
|--3----------x----3-----x---5--------x-----7---|
|--3----------x----3---------5--------------7---|
|--1---------------1---------3--------------5---|
G5 F
| | | | | | |
/ / / / x / /
|-3-|
E S S S S S E +E S S S S S S
|-----5---------8b10==(8)r-8p5-8-8p5---|
|--8----8p5---5----------------------8-|
|-----------7--------------------------|
|--------------------------------------|
|--------------------------------------|
|--------------------------------------|
|
| Q E E E E E E
|--------------------------------------|
|--------------------------------------|
|-(5)----------------------------------|
|--7--------x----------x-------x---3---|
|--7--------x---7------x---5---x---3---|
|--5------------5----------3-------1---|
Q E E E E E E E E E E E E E E
| | | | | | | | | | | | |
/ / / x / / / / / / x / /
~~~~~~~~~~~ ~ ~~~
S E. +E S S S S E S +S S S S S S S E S S S S S S S S +E
|--5-------------5---------------------|------------------------------------|
|-----8b10==(8)r---8-5---5-7b9r(7)p5---|------------------------------------|
|----------------------7-------------7-|--7--7p5---5-------------5h7b9-(7)--|
|--------------------------------------|---------7---7p5---5-5h7------------|
|--------------------------------------|-----------------7------------------|
|--------------------------------------|------------------------------------|
|
| Q E E E E E E Q E E E E E E
|--------------------------------------|------------------------------------|
|-(1)----------------------------------|------------------------------------|
|-(2)----------------x---4---------5---|-(5)--------------------------------|
|--3---------x---3---x---5-x-------7---|--7--------x-----x-------x------3---|
|--3---------x---3-------5---------7---|--7--------x-7---x---5---x------3---|
|--1-------------1-------3---------5---|--5----------5-------3----------1---|
Q E E E E E E
| | | | | |
/ / / x / /
~~~~~~~~~~~
E E +Q S S S S e E
|--5---------------5---------8b10r|
|--5--8b10==(8)r-----8-5---5------|
|------------------------7--------|
|---------------------------------|
|---------------------------------|
|---------------------------------|
|
| Q E E E E E E
|---------------------------------|
|-(1)-----------------------------|
|-(2)--------------x---4-----5----|
|--3---------x---3-x---5---x-7----|
|--3---------x---3-----5-----7----|
|--1-------------1-----3-----5----|
E E E E E E E E Q E E E E E E
| | | | | | | | | | | | |
/ / / / x / / / / / x / /
~~~~~~~~~~~~
+E E E E H Q Q +Q E +S S
|-(8)-------------------------------|-------------------------------|
|-----8b10--------------------------|-------------------------------|
|----------7-----5--------2b5==(2)r-|--2b5--2b5====(2)r---2b5r(2)p0-|
|----------7b10====(7)r-------------|-------------------------------|
|-----------------------------------|-------------------------------|
|-----------------------------------|-------------------------------|
| Q Q +Q E +E
|
| Q E E E E E E Q E E E E E E
|-----------------------------------|-------------------------------|
|-----------------------------------|-(1)---------------------------|
|-(5)-------------------------------|-(2)-----------x---4------5----|
|--7-------x--------x-----x-----3---|--3----x----3--x---5-x----7----|
|--7-------x-----7--x---5-x-----3---|--3----x----3------5------7----|
|--5-------------5------3-------1---|--1---------1------3------5----|
G5 F
| | | | | | |
/ / / / x / /
Gtr IV
~~~~~~~~~~~~~~~
S E. +Q +E S S S S S S
|--------------------------------|
|------------------------0---0---|
|--2---------------------0h2p0---|
|-----5----(5)---(5)-0h2-------2-|
|--------------------------------|
|--------------------------------|
|
| Q E E E E E E
|--------------------------------|
|--------------------------------|
|-(5)----------------------------|
|--7--------x-----x------x---3---|
|--7--------x--7--x--5---x---3---|
|--5-----------5-----3-------1---|
Q E E E E E E E E E E E E E E
| | | | | | | | | | | | |
/ / / x / / / / / / x / /
~~~~~~~~~~~~~ ~~~~~~~~~~~~~
S E. +Q +E S S S S +S S H +E S S S S S S
|-----------------------------------|----------------------------|
|-----------------------------------|----------------------------|
|--0--2--(2)---(2)----5-7-7b9r(7)p5-|-----------------5-7p5---5--|
|------------------/7---------------|--7--------(7)-7-------7----|
|-----------------------------------|----------------------------|
|-----------------------------------|----------------------------|
|
| Q E E E E E E Q E E E E E E
|-----------------------------------|----------------------------|
|-(1)-------------------------------|----------------------------|
|-(2)-----------x---4----------5----|-(5)------------------------|
|--3------x--3--x---5---x------7----|--7----x----x------x---3----|
|--3------x--3------5----------7----|--7----x-7--x--5---x---3----|
|--1---------1------3----------5----|--5------5-----3-------1----|
Q E E E E E E
| | | | | |
/ / / x / /
~~~~~~
E. S +Q +E S S S S S S
|-----------------------------------|
|-----------------------------------|
|--7--7b9r(7)b9====(7)r-7-5-7p5---5-|
|-------------------------------7---|
|-----------------------------------|
|-----------------------------------|
|
| Q E E E E E E
|-----------------------------------|
|-(1)-------------------------------|
|-(2)---------------x---4-------5---|
|--3-------x-----3--x---5---x---7---|
|--3-------x-----3------5-------7---|
|--1-------------1------3-------5---|
E E E E E E E E Q E E E E E E
| | | | | | | | | | | | |
/ / / / x / / / / / x / /
~~~~ ~~~~~~~ ~~~
S S S S S S S a S Q +Q S E. E. S Q S E.
|---------8p5---5------------------|--8------------8-10b12---8--------|
|--8p=5-------5---8s10-10---(10)---|--8--10--10----------------10-----|
|-------5--------------------------|----------------------------------|
|----------------------------------|----------------------------------|
|----------------------------------|----------------------------------|
|----------------------------------|----------------------------------|
|
| Q E E E E E E Q E E E E E E
|----------------------------------|----------------------------------|
|----------------------------------|-(1)------------------------------|
|-(5)------------------------------|-(2)--------------x----4-------5--|
|--7--------x-----------x-----x--3-|--3-------x--3----x----5-x-----7--|
|--7--------x---7-------x-5---x--3-|--3-------x--3---------5-------7--|
|--5------------5---------3------1-|--1----------1---------3-------5--|
Am C G5III Bb5 F5
Gtrs II, III
Q Q E E Q E E E E +H E E E E Q E E
| | | | | | | | | | | | |
/ / / / / / / / / / / / /
Gtr IV Gtrs I, IV
~~
Q E +E S S S S S S E E S S E E +E E S S E E E E E Q E S S
|--------------5--------------|-----------------------|-------------------|
|-10--8b10-(8)-5-8-5----------|-----------------------|-------------------|
|--------------------8-7p5----|-5---------------------|----3-3------------|
|--------------------------7\\-|-5-----5-5-(5)-------5-|-x--3-3-3-3--3-5s7-|
|-----------------------------|-3-5s7---5-(5)-------5-|-x--1-1-3-3--3-----|
|-----------------------------|---------3-(3)-3-5s7---|----1-1-1-1--1-0---|
H. E E
Gtr III Gtrs II, III
W Q E E E E E e E E E E +H
| | | | | | | | |
/ / / / / / / / /
Gtrs I, IV
+Q E E Q E E E E E S S E E E E E S S E E +E E S S E
|-----------------|---------------------------|-----------------------|
|-----------------|---------------------------|-----------------------|
|-------------5h7-|--7s=9-9s12-12-12s14-14s16-|-5---------------------|
|-(7)--7p5-7------|---------------------------|-5-----5-5-(5)-------5-|
|--0--------------|-(0)---------------------0-|-3-5s7---5-(5)-------5-|
|-----------------|---------------------------|---------3-(3)-3-5s7---|
W +H.. E
E E E E Q E E Q Q Q Q
| | | | | | | | |
/ / / / / / / / /
H. E E Q E E Q E E
|-----------------|-------------------------|
|-----------------|---------------13-15b17==|
|----3-3--------5s|=14--14p12-14------------|
|-x--3-3-3-3--3---|-------------------------|
|-x--1-1-3-3--3---|--0----------------------|
|----1-1-1-1--1-0-|-------------------------|
E E E E Q E E W
E E E E E E e E
| | | | | |
/ / / / / /
|--3--| |--3--|
+E +E +E S +S S S S E S S S E
|-----------------15-------12h15p12----12h15p12-----|
|-(15)-(15)-(15)-(15)r(15)----------15----------15--|
|---------------------------------------------------|
|---------------------------------------------------|
|--(0)----------------------------------------------|
|---------------------------------------------------|
+H H
Gtr II
Q E E Q. E +W
| | | |
o / / /
Gtr IV
~~~~~~~~~~~~~~
E +E Q +E +E E E E E E E E E E E
|-------------------------------------|-----12-12------12---12-----------|
|-15b17r(15)-15b17====(15)r(15)p13----|-----15-15------15---15-----------|
|----------------------------------14-|-14--14-14--x---14---14---12\\-----|
|-------------------------------------|--------------------------------0-|
|-------------------------------------|----------------------------------|
|-------------------------------------|----------------------------------|
|
| Gtr I
| Q E E E E E E +Q E. S s S S S S S E
|-------------1-----------------------|--------------5--5---------5--5---|
|-------------1---------------------5-|-(5)-----5----5--5---------5--5---|
|-------------2---------------------5-|-(5)-----5-------5-x-------5--5---|
|--3----------3---------x----3---x--7-|-(7)-----7------------------------|
|--3--------------------x----3------7-|-(7)------------------7-7---------|
|--1-------------------------1------5-|-(5)------------------------------|
Q E E Q. E +W
| | | |
o / / /
E +E E +E E +E E E +E E S E S E S +S +E E
|---------------------------------|---------------------------------|
|---------------------------------|---------------------------------|
|-7b9-(7)-7b9-(7)-7b9r(7)-5b5.5---|---------------------------------|
|-------------------------------7-|-(7)-5---------------------------|
|---------------------------------|-------7s5-3-5---5b6r(5)-(5)p==3-|
|---------------------------------|---------------------------------|
|
| Q E E E E E E +Q E. S s S S S S S E
|---------1-----------------------|-----------5-5------------5--5---|
|---------1---------------------5-|-(5)---5---5-5------------5--5---|
|---------2---------------------5-|-(5)---5-----5-x----------5--5---|
|-3-------3-------x----3--x-----7-|-(7)---7-------------------------|
|-3---------------x----3--------7-|-(7)-------------7----7----------|
|-1--------------------1--------5-|-(5)-----------------------------|
Q E E Q. E
| | |
o / /
S +S +E +Q +E E E a E
|----------------------------------|
|----------------------------------|
|----------------------------------|
|------------------------------5s7-|
|-5b6r(5)b6==(5)-(5)r==(5)-5-3-----|
|----------------------------------|
|
| Q E E E E E E
|-----------------1----------------|
|-----------------1--------------5-|
|-----------------2--------------5-|
|-3---------------3-----x--3-x---7-|
|-3---------------------x--3-----7-|
|-1------------------------1-----5-|
+W
|
/
+Q E E Q E E
|------------------------------|
|------------------------------|
|------5--7-----------5---7b9==|
|-(7)---------7----------------|
|------------------------------|
|------------------------------|
|
| +Q E. S s S S S S S E
|-----------5-5-------5-5------|
|-(5)--5----5-5-------5-5------|
|-(5)--5------5-x-----5-5------|
|-(7)--7-----------------------|
|-(7)-------------7-7----------|
|-(5)--------------------------|
D.S.S. al Dbl. Coda
Q E E Q. E +W
| | | |
o / / /
+E +E Q +E +E E E +E E S E S E E E E
|-----------------------------|----------------------------||
|-----------------------------|----------------------------||
|-(7)r(7)h9b11====(9)r(9)-5---|----------------------------||
|---------------------------7-|-(7)-5----------------------||
|-----------------------------|-------7s5-3-5---3----------||
|-----------------------------|---------------------5---3--||
|
| Q E E E E E E +Q E. S s S S S S S E
|---------1-------------------|-----------5-5-------5-5----||
|---------1-----------------5-|-(5)---5---5-5-------5-5----||
|---------2-----------------5-|-(5)---5-----5-x-----5-5----||
|--3------3--------x---3--x-7-|-(7)---7--------------------||
|--3---------------x---3----7-|-(7)-------------7-7--------||
|--1-------------------1----5-|-(5)------------------------||
&&
Gtr II
W W
|-------------------|----------------|
|-------------------|----------------|
|-------------------|----------------|
|-------------------|----------------|
|-------------------|----------------|
|-------------------|----------------|
|
| Gtrs I, III
| ~~~
| E E S S E E E E e Q E E E E E E
|-------------------|----------------|
|-1-1-1---3-3-3-3---|----1-----------|
|-2-2-2p0-0-0-0-0-0-|----2---x-----2-|
|-2-2-2---0-0-0-0-0-|-3--3---x-3---2-|
|-0-0-----2-2-2-2---|-3--------3---0-|
|---------3-3-3-3---|-1--------1-----|
Q. E +E +E E E +W
|---------------------------------|-------------------|
|---------------------------------|-------------------|
|--------7b9====(7)r==(7)p==5---7-|-(7)---------------|
|---------------------------------|-------------------|
|---------------------------------|-------------------|
|---------------------------------|-------------------|
|
|~~~~~
| +Q E S S S S S S S S E Q E E E E E E
|------0--------------------------|-------------------|
|------1--------------------------|------1------------|
|-(2)--2---------2----------------|------2---x-0---2--|
|-(2)----x----x--0h=2--2--2---0---|------3---x-0---2--|
|-(0)---------------------------2-|--3---------2---0--|
|---------------------------------|--1---------3------|
~~~
+Q S +S E Q E S S +W
|---------------------------|------------------|
|---------------------------|------------------|
|-(7)--7pb9r(7)-------------|------------------|
|-----------------------5s7-|-(7)--------------|
|---------------7-5---3-----|------------------|
|---------------------------|------------------|
|
| ~~~
| +Q e E E Q E Q E E E E E E
|---------------------------|------1-----------|
|-------------------1---x---|------1-----------|
|-(2)--2----------0-2-------|--2---2---x-----2-|
|-(2)--2--------x-0-2-------|--3---3---x-3---2-|
|-(0)--0--------------------|--3---------3---0-|
|---------------------------|--1---------1-----|
~~
+Q +E +E E E E E
|----------------------------------|
|--------------------------13------|
|---------------------12--------14-|
|-(7)--(7)-(7)s==14----------------|
|----------------------------------|
|----------------------------------|
|
|~~~~~
| +Q E S S S S S S S S E
|-------0--------------------------|
|-------1------1---------1---------|
|-(2)-------x-----2------2----0----|
|-(2)-------x-----0h2--2-2---------|
|-(0)----------------------------2-|
|----------------------------------|
W W
~~~~
+W +Q +E E E E E E
|----------------------|--------------------------||
|----------------------|-----------------13-15----||
|-(14)-----------------|-(14)--(14)s2s14-------14-||
|----------------------|--------------------------||
|----------------------|--------------------------||
|----------------------|--------------------------||
|
| E E S S E E E E e W
|----------------------|--------------------------||
|---1--1-1---3-3-3-3---|--------------------------||
|---2--2-2p0-0-0-0-0-0-|--------------------------||
|---2--2-2---0-0-0-0-0-|--------------------------||
|---0--0-----2-2-2-2---|--------------------------||
|------------3-3-3-3---|--------------------------||
3rd Solo Section
Gtr III
Q E E E E E E
| | | | | |
/ / / x / /
Q Q +Q E +S S
|-15b17--15b17====(15)r---15pb17r(15)p12-|
|----------------------------------------|
|----------------------------------------|
|----------------------------------------|
|----------------------------------------|
|----------------------------------------|
|
| Gtr I
| Q E E E E E E
|----------------------------------------|
|-(1)------------------------------------|
|-(2)---------------x---4----------5-----|
|--3------x-----3---x---5--x-------7-----|
|--3------x-----3-------5----------7-----|
|--1------------1-------3----------5-----|
G5 F
| | | | | | |
/ / / / x / /
Q S S S S S S S S S S S S
|-15----15p12-15-15p12-15-15p12-15-15p12-15-|
|-------------------------------------------|
|-------------------------------------------|
|-------------------------------------------|
|-------------------------------------------|
|-------------------------------------------|
|
| Q E E E E E E
|-------------------------------------------|
|-------------------------------------------|
|-(5)---------------------------------------|
|--7-----x-----------x-----------x-----3----|
|--7-----x-----7-----x-----5-----x-----3----|
|--5-----------5-----------3-----------1----|
Q E E E E E E E E E E E E E E
| | | | | | | | | | | | |
/ / / x / / / / / / x / /
S S S S S S S S S S S S S S E Q E E +E E E E
|-15p=12-15-15p12-15-15p12-15-15p12-15-15p12----|---------------------------|
|--------------------------------------------13-|-13----13-13-(13)-13-13-13-|
|-----------------------------------------------|-14----14-14-(14)-14-14-14-|
|-----------------------------------------------|---------------------------|
|-----------------------------------------------|---------------------------|
|-----------------------------------------------|---------------------------|
|
| Q E E E E E E Q E E E E E E
|-----------------------------------------------|---------------------------|
|-(1)-------------------------------------------|---------------------------|
|-(2)-----------------------x-----4-----------5-|-(5)-----------------------|
|--3------------x-----3-----x-----5-----x-----7-|--7-----x------x------x--3-|
|--3------------x-----3-----------5-----------7-|--7-----x--7---x---5--x--3-|
|--1------------------1-----------3-----------5-|--5--------5-------3-----1-|
Q E E E E E E E E E E E E E E Q E E E E E E
| | | | | | | | | | | | | | | | | | |
/ / / x / / / / / / x / / / / / x / /
E E E E Q E E +E E E E E E E E Q S S E +E E +S E S
|-----------------------|-------------------|------------------------------|
|-13--13-13-13-13s==8-8-|-(8)-8-8-----------|----------------------------5-|
|-14--14-14-14-14s==9-9-|-(9)-9-9s7-7s5-5s2-|--2---2p0-2-(2)-7-(7)-7b9-----|
|-----------------------|-------------------|------------------------------|
|-----------------------|-------------------|------------------------------|
|-----------------------|-------------------|------------------------------|
|
| Q E E E E E E Q E E E E E E Q E E E E E E
|-----------------------|-------------------|------------------------------|
|-(1)-------------------|-------------------|-(1)--------------------------|
|-(2)-----------x-4---5-|-(5)---------------|-(2)---------x--4---------5---|
|--3------x--3--x-5-x-7-|--7----x---x---x-3-|--3---x---3--x--5--x------7---|
|--3------x--3----5---7-|--7----x-7-x-5-x-3-|--3---x---3-----5---------7---|
|--1---------1----3---5-|--5------5---3---1-|--1-------1-----3---------5---|
G5 F
| | | | | | |
/ / / / x / /
Gtr IV
H E. S S +S E
|--------------------------17------------17---|
|------------------20b22------20b22-(20)------|
|---------------------------------------------|
|---------------------------------------------|
|---------------------------------------------|
|---------------------------------------------|
|
| Gtr II
| E +E E. S E. S E. S
|---------------------------------------------|
|----------------5----------5---------------5-|
|--7b9-(7)-7b9------7b9--------7b9------------|
|---------------------------------------------|
|---------------------------------------------|
|---------------------------------------------|
|
| Gtr I
| Q E E E E E E
|---------------------------------------------|
|---------------------------------------------|
|-(5)-----------------------------------------|
|--7-------x--------x----------x----------3---|
|--7-------x---7----x----5-----x----------3---|
|--5-----------5---------3----------------1---|
Q E E E E E E
| | | | | |
/ / / x / /
E. S E S S E. S E. S
|-------17-------17-17---------17---------17-|
|-20b22----20b22-------20b22------20b22------|
|--------------------------------------------|
|--------------------------------------------|
|--------------------------------------------|
|--------------------------------------------|
|
| E. S E. S Q E. S
|--------------------------------------------|
|--------5-----------5---------------------5-|
|--7b9------7b9---------7b9--------7b9-------|
|--------------------------------------------|
|--------------------------------------------|
|--------------------------------------------|
|
| Q E E E E E E
|--------------------------------------------|
|-(1)----------------------------------------|
|-(2)-------------------x----4----------5----|
|--3--------x-----3-----x----5-----x----7----|
|--3--------x-----3----------5----------7----|
|--1--------------1----------3----------5----|
G5 F
| | | | | | |
/ / / / x / /
E S S Q Q E. S
|------17-17---------------------------17-|
|-20---------20b22-----20b22---20b22------|
|-----------------------------------------|
|-----------------------------------------|
|-----------------------------------------|
|-----------------------------------------|
|
| Q E. S Q E. S
|-----------------------------------------|
|--------------------5------------------5-|
|--7b9--------7b9-------7b9-----7b9-------|
|-----------------------------------------|
|-----------------------------------------|
|-----------------------------------------|
|
| Q E E E E E E
|-----------------------------------------|
|-----------------------------------------|
|-(5)-------------------------------------|
|--7----------x---------x-------x----3----|
|--7----------x----7----x----5--x----3----|
|--5---------------5---------3-------1----|
Q E E E E E E
| | | | | |
/ / / x / /
E S S Q E S S S +S E
|----------17-17-------------------------17--17-----------------|
|-20-------------20b22---------20---------------20pb22r(20)-17--|
|---------------------------------------------------------------|
|---------------------------------------------------------------|
|---------------------------------------------------------------|
|---------------------------------------------------------------|
|
| S +E. S +E S S +S +E E E
|---------------------------------------------------------------|
|----------------------------5----------------------------------|
|--7b9-(7)--------7b9--(7)------7b9==(7)r(7)p====5--------------|
|---------------------------------------------------------------|
|------------------------------------------------------------0--|
|---------------------------------------------------------------|
|
| Q E E E E E E
|---------------------------------------------------------------|
|-(1)-----------------------------------------------------------|
|-(2)---------------------------x---------4------------------5--|
|--3--------------x--------3----x---------5------x-----------7--|
|--3--------------x--------3--------------5------------------7--|
|--1-----------------------1--------------3------------------5--|
G5 F
| | | | | | |
/ / / / x / /
|----------------------------------------------|
|-20--20b22-20b22-20b22-20b22-20b22-20-20pb22==|
|----------------------------------------------|
|----------------------------------------------|
|----------------------------------------------|
|----------------------------------------------|
|
| +W
|----------------------------------------------|
|----------------------------------------------|
|----------------------------------------------|
|----------------------------------------------|
|-(0)------------------------------------------|
|----------------------------------------------|
|
| Q E E E E E E
|----------------------------------------------|
|----------------------------------------------|
|-(5)------------------------------------------|
|--7---------x-----------x-----------x--3------|
|--7---------x-----7-----x-----5-----x--3------|
|--5---------------5-----------3--------1------|
Q E E E E E E
| | | | | |
/ / / x / /
~~~~~
+E. S E. S S S S S S S S S
|-----------------17-------17-------17-------|
|-(20)r---20b22------17-------17h20----17h20-|
|-------x---------------20-------------------|
|--------------------------------------------|
|--------------------------------------------|
|--------------------------------------------|
|
| +W
|--------------------------------------------|
|--------------------------------------------|
|--------------------------------------------|
|--------------------------------------------|
|--(0)---------------------------------------|
|--------------------------------------------|
|
| Q E E E E E E
|--------------------------------------------|
|--(1)---------------------------------------|
|--(2)----------------x-----4-----------5----|
|---3------x----3-----x-----5-----x-----7----|
|---3------x----3-----------5-----------7----|
|---1-----------1-----------3-----------5----|
G5 F
| | | | | | |
/ / / / x / /
S S S S S S S S S S S S S S S S
|-17--------17-------17-------17-------17-------17-|
|-----17h20----17h20----17h20----17h20----17h20----|
|--------------------------------------------------|
|--------------------------------------------------|
|--------------------------------------------------|
|--------------------------------------------------|
|
| W
|----------------------------------

Important: The song above is NOT stored on the Chordie server. The original song is hosted at www.xguitar.com. Chordie works as a search engine and provides on-the-fly formatting. Chordie does not index songs against artists'/composers' will. To remove this song please click here.

Text color:
Chord color:
Chord grids: 
Font size:    
Page size: 

Am F G G5
Rate #3 of 5 versions

Jango Player

Login - add to songbook

SHARE PAGE  




You need to log in to post comments

ResidentSD (report)

Jesus christ man.... well done!