Guitar Tabs, Chords and Lyrics
Major upgrade!! After one year development the new version of Chordie is now online! Please give feedback.


Imperium   Machine Head

 
 C#|------------------------------------|
 G#|------------------------------------|
 E |------------------------------------| x2
 B |-4-5------7-5------4-5------7-5-----|
 F#|------------------------------------|
 B |------------------------------------|

 


 


 Rythem


 

 
 C#|------------------------------------|
 G#|------------------------------------|
 E |------------------------------------| x2
 B |-0-2-------0-2-------0-2-------0-2--|
 F#|-0-2-------0-2-------0-2-------0-2--|
 B |-0-2-------0-2-------0-2-------0-2--|

 


 Lead


 

 
 C#|-------------------------------------------|
 G#|---------------------------------------*---|
 E |-----------------------------------*-*-5---| x8
 B |--2-/-10-10---10-10-10/8-8-8-8-8/5-5-5-----|
 F#|-------------------------------------------|
 B |-------------------------------------------|

 


 


 Rythem 2


 

 
 C#|-----------------------------------------------------------|
 G#|-----------------------------------------------------------|
 E |-----------------------------------------------------------| x4
 B |-----------------------------------------------------------|
 F#|-----------------------------------------------------------|
 B |-2-2-2-2---2-2-2-2---2-2-2-2---2-2-2---2-2-2-2-2--2-2-2----|

 


 


 Verse Rythem


 

 
 C#|--------------------------------------------------------------------------------------|
 G#|--------------------------------------------------------------------------------------|
 E |--p---------------------------p--------------------------p----------------------------|
 B |-2-0----------p--------------2-0---------------------#--2-0----------p----------------|
 F#|-------------5-3----------p--------------5-3---------5--------------5-3------------p--|
 B |-----0-0-0-0-----0-0-0-0-6-3-----0-0-0-0-----0-0-0-0--------0-0-0-0-----0-0-0-0-0-6-3-|

 


 \"Hear Me Now!\"


 


 

 
 C#|------------------------------------|
 G#|------------------------------------|
 E |-------------------------7-7-4-4----|
 B |-3-3-3-------6-6-6-3-3-3------------|
 F#|-------5-5-5------------------------|
 B |------------------------------------|
 C#|----------------------------------------------------|
 G#|----------------------------------------------------|
 E |----------------------------------------------------|
 B |--9/7-7-7--9/7-7-7--9/7-7--7/5-5-5--7/5-5-5--5/3-3--|
 F#|--7/5-5-5--7/5-5-5--7/5-5--5/3-3-3--5/3-3-3--5/3-3--|
 B |----------------------------------------------------|
 C#|------------------------------------|
 G#|------------------------------------|
 E |------------------------------------|
 B |-0-2---3-2---0-2--3-3-3-3-3-3-3-3---|
 F#|-0-2---3-2---0-2--3-3-3-3-3-3-3-3---|
 B |-0-2---3-2---0-2--3-3-3-3-3-3-3-3---|
 -----pm-------
 C#|------------------------------------|
 G#|------------------------------------|
 E |-----*-------*-------*-------*------|
 B |-----5-------5-------5-------5------|
 F#|------------------------------------|
 B |-0-2---2-3-2---2-0-2---2-3-2--------|
 C#|------------------------------------|
 G#|------------------------------------|
 E |------------------------------------|
 B |------------------------------------|
 F#|------------------------------------|
 B |-2/8-8--5-5-7-7/5-------------------|
 C#|-------/----------------------------|
 G#|------/-----------------------------|
 E |-----/------------------------------|
 B |----/-------------------------------|
 F#|-0-/--------------------------------|
 B |-0/---------------------------------|

 


 (depress trem bar)


 


 

 
 C#|------------------------------------|
 G#|------------------------------------|
 E |------------------------------------|
 B |-0-1--0-1--0-1--6-3-4--1-4-3--------|
 F#|-0-1--0-1--0-1--6-3-4--1-4-3--------|
 B |-0-1--0-1--0-1--6-3-4--1-4-3--------|
 C#|---------------------------------------------------------------------|
 G#|---------------------------------------------------------------------|
 E |---------------------------------------------------------------------|
 B |------------------------------------------------------6-3-4--1-4-3---|
 F#|------------------------------------------------------6-3-4--1-4-3---|
 B |-000-000-000-000-000-000-000-333-444-000-000-000-000--6-3-4--1-4-3---|
 (--------------------------pm-----------------------)#
 C#|------------------------------------|
 G#|------------------------------------|
 E |------------------------------------|
 B |-2----------------------------------|
 F#|-2----------------------------------|
 B |-2----------------------------------|

 


 


 _


 

 
 C#|------------------------------------| |
 G#|------------------------------------| |
 E |-9--9/7--7/5--5/4-------------------| |
 B |------------------------------------| |
 F#|-7--7/5--5/3--3/2-------------------| |
 B |------------------------------------| |

 


 |


 |Harmony


 

 
 C#|------------------------------------| |
 G#|------------------------------------| |
 E |-9--9/11-11/12-12/14----------------| |
 B |------------------------------------| |
 F#|-7--7/9--9/10--10/12----------------| |
 B |------------------------------------| |

 


 [-] 


 


 

 
 C#|------------------------------------|
 G#|------------------------------------|
 E |------------------------------------| x2
 B |-----2-----------5-4----------------|
 F#|-----------4---------4-5------------|
 B |-2-2---2-2---2-2--------------------|
 C#|------------------------------------|
 G#|------------------------------------|
 E |------------------------------------|
 B |-----5-----4-----4-2----------------|
 F#|-0-0---0-0---0-0--0-0-5-4-----------|
 B |------------------------------------|
 C#|------------------------------------|
 G#|------------------------------------|
 E |------------------------------------|
 B |-----5-----3------5-3-2-0-----------|
 F#|-3-3---3-3---3-3----------5-4-3-0---|
 B |------------------------------------|
 C#|------------------------------------|
 G#|------------------------------------|
 E |------------------------------------| x3
 B |-0-2-0-22222222---------------------|
 F#|-0-2-0-22222222---------------------|
 B |-0-2-0-22222222---------------------|
 C#|------------------------------------|
 G#|------------------------------------|
 E |------------------------------------|
 B |-3-3-3------------------------------|
 F#|-1-1-1-1-1-1------------------------|
 B |-------1-1-1------------------------|
 C#|------------------------------------|
 G#|------------------------------------|
 E |------------------------------------| x3
 B |------------------------------------|
 F#|---rb-------------------------------|
 B |-0-1--0-2-2-2-2-2-2-2-2-------------|


Important: The song above is NOT stored on the Chordie server. The original song is hosted at www.xguitar.com. Chordie works as a search engine and provides on-the-fly formatting. Chordie does not index songs against artists'/composers' will. To remove this song please click here.

This song is displayed as text-only. Transposing and tuning is only available for chordpro-songs.
Rate #2 of 4 versions

Jango Player

Login - add to songbook

SHARE PAGE  




You need to log in to post comments