Guitar Tabs, Chords and Lyrics
Server problems seems to be fixed. Chordie has been experiencing problems with songs disappearing. These issues now seems to be fixed, but still verifying the fix. If you find anything strange, please email admin@chordie.com.


De pies a cabeza  Maná

 
 -------------------------------------------------------------------------------

De Pies A Cabeza - Mana
 
 -------------------------------------------------------------------------------

Tabbed by: Sergio Reyes (serrey390)
E-mail: serrey390@yahoo.com
Tuning: Standard (from high to low, e B G D A E)
Here's the intro, try to listen to the song to get the real-time rythm.
[(Esus2)] [(A)] [(B)] [(A)] [(Esus2)] [(A)] [(B)]  
 
 e-7-7---7---5-5---5---7-7---7---5-5---5---7-7---7---5-5---5---7-7---7-|
 B-7-7---7---5-5---5---7-7---7---5-5---5---7-7---7---5-5---5---7-7---7-|
 G-9-9---9---6-6---6---8-8---8---6-6---6---9-9---9---6-6---6---8-8---8-|
 D-9-9---9---7-7---7---9-9---9---7-7---7---9-9---9---7-7---7---9-9---9-|
 A-x-x---x---x-x---x---x-x---x---x-x---x---x-x---x---x-x---x---x-x---x-|
 E-x-x---x---x-x---x---x-x---x---x-x---x---x-x---x---x-x---x---x-x---x-|
 e-7-7---7--| (That's the intro, I tried my best to give you a good idea of how
 B-7-7---7--| the rythm goes, it is better if you listen to the song. The
 G-9-9---9--| letters in parenthesis are the chord names, the same voicings
 D-9-9---9--| are used throughout the whole song)
 A-x-x---x--|
 E-x-x---x--|

Quien te [A]besara,[B] de pi[A]es a cab[Esus2]eza?[A] [B] [A] [Esus2]
Quien te [A]hara el cafe[B], por [A]la mañana?[Esus2] [A] [B] [A] [Esus2]
Dime quien [A]te baña[B]ra, de [A]besos?[Esus2] [A]
Solo [B]yo[A] [Esus2]
Quien te [A]hara tripiar[B]? [A] guayo guayo[Esus2] [A] [B] [A]
(Chorus)
(The chord voicings for the chorus are a bit weird, the reason is, when you have
a saxophone playing in unison with a guitar, you don't have to play full chords,
for the sax gives the melody a full sound. You can also play full chords if
desired.)
These are the chord voicings for the chorus
[E] [A9] [Bsus]  
 
 e-0-| e-0-| e-0-|
 B-0-| B-0-| B-0-|
 G-1-| G-2-| G-4-|
 D-x-| D-x-| D-x-|
 A-x-| A-x-| A-x-|
 E-x-| E-x-| E-x-|

[E]Hoy te quiero [A9]mas que siem[Bsus]pre
[E]Hoy te adoro [A9]mas que nun[Bsus]ca
[E]Hoy te vo[A9]y a besar[Bsus]
de los pies a la cabe[E]za [A9] guayo yo[Bsus] yo
(Those are the chords used throughout the whole song, I hope you have
a good idea on when and where to use them)
Guitar solo:
[E] [A] [B] [A]  
 
 e-------------------------------------------7-7--------------------------|
 B-9-9---------------------------------------7-7--------------------------|
 G-9-9--------------9---9--------------------8-8-------------9---9--------|
 D-9-9-------9-11-----------11--9----11------9-9---9---11------------11---|
 A------------------------------------------------------------------------|
 E------------------------------------------------------------------------|

[E] [A] [B]  
 
 e---------------------------------------------------------7-7------------|
 B--------------9-9----------------------------------------7-7------------|
 G--------------9-9---------------------9--9---------------8-8------------|
 D--9-----------9-9-------9---9---11-----------11--9--11---9-9----9---11--|
 A------11----------------------------------------------------------------|
 E------------------------------------------------------------------------|

[A]  
 
 e------------------------------------------------------------------------|
 B------------------------------------------------------------------------|
 G--9--9----------11^(full bend)----(11)(note release from previous bend)-|
 D---------11-------------------------------------------------------------|
 A------------------------------------------------------------------------|
 E------------------------------------------------------------------------|
 e-------------|
 B-------------|
 G------11-----|
 D-------------|
 A-------------|
 E-------------|

That's all you should know about this song, just repeat the chords. This
transcription is on the original recorded key, if you find it "high" or "low"
then transpose it to a key that best fits your vocal range. If you have any
questions or comments please contact me, I will be happy to assist you.

Important: The song above is NOT stored on the Chordie server. The original song is hosted at www.xguitar.com. Chordie works as a search engine and provides on-the-fly formatting. Chordie does not index songs against artists'/composers' will. To remove this song please click here.

Text color:
Chord color:
Chord grids: 
Font size:    
Page size: 

A A9 B Bsus E Esus2
Rate #1 of 1 versions

Login - add to songbook

SHARE PAGE  




You need to log in to post comments