Guitar Tabs, Chords and Lyrics
Major upgrade!! After one year development the new version of Chordie is now online! Please give feedback.


You Love Us  Manic Street Preachers

Riff A Riff B
[G] [D]  
 
 G-|-9--/12-12--| G-|------------|
 D-|-9--/12-12--| D-|-9--/12-12--|
 A-|-7--/10-10--| A-|-9--/12-12--|
 E-|------------| E-|-7--/10-10--|

Riff C
[C]  
 
 G-|-5----|-7----|-9----|-12----|
 D-|------|------|------|-------|
 A-|-3----|-5----|-7----|-10----|
 E-|------|------|------|-------|

Intro
x4 x2
|:Riff A :|:F5 C5 |G5 :|
Verse
[F5]We are not [C5]your [G5]sinners
[F5]Our voices [C5]are for [G5]real
[F5]We realised [C5]and [G5]won't be mourned
[F5]We gonna burn [C5]your [G5]deathmask uniforms
Pre-Chorus
[D5]We won't die [B5]of [C5]devotion
[D5]Understand [B5]we can [C5]never belong
[D5]Throw some [B5]acid in [C5]to your face
[D5]Pollute your mineral wa[B5]ter with [C5]strychnine taste
Chorus
Riff A Riff A
You
Riff B Riff B
Love
Riff C
Us You love us You love us You love
Riff A Riff A
You love us
Riff B Riff B
You love us
Riff C
You love You love us You love us
Mid Section
x2
|:F5 C5 |G5 :|
Verse 2: Repeat Verse 1
Pre-Chorus: Repeat Pre-Chorus
Chorus: Repeat Chorus
Solo
|G5 |G5 |Bb5 |Bb5 |
|C5 |C5 |Eb5 |Eb5 | Repeat twice
Chorus: Repeat Chorus
Outro
x4
|:F5 C5|G5 :|
N.C.
 
 G-|----------------------------|-----------------|
 D-|----------------------------|-----------------| Repeat
 A-|----------1-------1-------1-|-3-/5-5--3-/5-5--| x2
 E-|-1--2--3----1-2-3---1-2-3---|-1-/3-3--1-/3-3--|

[C] [F] [F5] [G5] [F5] [G5]  
 
 G-|------------3-po-0----------------------|----------------|
 D-|-------------------3-ho-5-5-po-3-po-0---|----------------| Repeat
 A-|----------1---------------------------3-|-3-/5-5--3-/5-5-| x6
 E-|-1--2--3--------------------------------|-1-/3-3--1-/3-3-|

|C5 |Bb5 F5 |F5 G5 F5 G5 |

Important: The song above is NOT stored on the Chordie server. The original song is hosted at www.xguitar.com. Chordie works as a search engine and provides on-the-fly formatting. Chordie does not index songs against artists'/composers' will. To remove this song please click here.

Text color:
Chord color:
Chord grids: 
Font size:    
Page size: 

B5 C C5 D D5 F F5 G G5
Rate #2 of 6 versions

Jango Player

Login - add to songbook

SHARE PAGE  




You need to log in to post comments