Guitar Tabs, Chords and Lyrics
Major upgrade!! After one year development the new version of Chordie is now online! Please give feedback.


His Last Painting  Manic Street Preachers

Band: Manic Street Preachers
Album: Know Your Enemy
Song: His Last Painting
Year: 2001
===========================================================================
===========================================================================
===========================================================================
His Last Painting
Tabbed By Sparkly Bob and Madbob
http://www.geocities.com/m4dbob
Riff 1
 
 E|--0-----------2---------1-------------|
 B|--1--------------3----------3---------|
 G|----2---------------2-----------2-----|
 D|---------2-0--------------------------|
 A|0-----0-------------------------------|
 E|--------------------------------------|

Intro:
Riff 1 x4
Verse 1:
Riff 1
The nothing in me
Riff 1
The apostle in me
Riff 1
No interpretation
Riff 1
For the heart of me
Chorus 1:
[Em]I can't see right from my wrong[Am]
Em (F E F) one strum of each
I've loved so much that I can't go on
Verse 2 (as verse 1)
It's not my life anymore
Don't speak the truth anymore
All of the hope and the dreams
Ripped right open at the seams
Chorus 2 (as chorus 1)
I can't see right from my wrong
I've loved so much that I can't go on
Verse 3 (as verse 1)
Seems like I've lost myself
To everybody and everything else
I've lied again today
People laugh at it all the time
Chorus 3 (as chorus 1)
I can't see right from my wrong
I've loved so much that I can't go on
Solo 1
 
 e|-------------------------------------------------|
 B|-------------------------------------------------|
 G|-------------------------------------------------|
 D|-------------------------------------------------|
 A|-------------------------------------------------|
 E|-5-5-8-7-5-3-5-7-5~~~-5-5-8-7-5-8s10-10-8-7-5~~~-|
 e|-----------------------------------------------|
 B|-----------------------------------------------|
 G|-----------------------------------------------|
 D|-----------------------------------------------|
 A|-----------------------------------------------|
 E|-5-5-8-7-5-3-5-7-5-8-7-5-5-8-7-5-8s10~~~~~~~~~-|

Verse 4 (as verse 1)
It's not my life anymore
Don't speak the truth anymore
All of the hope and the dreams
Ripped right open at the seams
Chorus 4 (as chorus 1)
I can't see right from my wrong
I've loved so much that I can't go on
Solo 2
 
 e|------------------8-------------------------12------|
 B|-10bu12-12bd10-8-----10-8-10-10-10bu12bd10----------|
 G|----------------------------------------------------|
 D|----------------------------------------------------|
 A|----------------------------------------------------|
 E|----------------------------------------------------|

The nothing in me
random picking
 
 |------------------|
 E|-10-8-7-------------------------10-8-7-10-10-10bu12--10bu12bd10---|
 B|--------10-8-10~~~-10bu12bd10-8--------------xxxxxxxxxxxxxxxxxx---|
 G|------------------------------------------------------------------|
 D|------------------------------------------------------------------|
 A|------------------------------------------------------------------|
 E|------------------------------------------------------------------|

Outro
Riff 1
The nothing in me
Riff 1
The apostle in me
Riff 1
No interpretation
Riff 1
For the heart of me
Riff 1
The nothing in me
Riff 1
The apostle in me
Riff 1
The nothing in me
Riff 1
The apostle in me
Riff 1
Riff 1
The nothing in me
Riff 1
End on Am

Important: The song above is NOT stored on the Chordie server. The original song is hosted at www.xguitar.com. Chordie works as a search engine and provides on-the-fly formatting. Chordie does not index songs against artists'/composers' will. To remove this song please click here.

Text color:
Chord color:
Chord grids: 
Font size:    
Page size: 

Am Em
Rate #5 of 5 versions

Login - add to songbook

SHARE PAGE  



You need to log in to post comments