Guitar Tabs, Chords and Lyrics
Major upgrade!! After one year development the new version of Chordie is now online! Please give feedback.


Tsunami  Manic Street Preachers

TUNE DOWN STRINGS 1 & 2 [E & A] 1 FULL STEP [D & G]
[VERSE] 
[G] [G] [G] [G]  
 
 E||---------------------------------------------------------------------------||
 B||---------0-1-0-----------0-1-0-----------0-1-0-----------0-1-0-------------||
 G||-------0-------0-------0-------0-------0-------0-------0-------0-----------||
 D||-----0-----------0---0-----------0---0-----------0---0-----------0---------||
 A||---0---------------0---------------0---------------0---------------0-------||
 E||-0-------------------------------------------------------------------------||

For you my dear
[G] [G] [Aadd2] [Aadd2]  
 
 E||---------------------------------------------------------------------------||
 B||---------0-1-0-----------0-1-0-----------2-3-2-----------2-3-2-------------||
 G||-------0-------0-------0-------0-------2-------2-------2-------2-----------||
 D||-----0-----------0---0-----------0---4-----------4---4-----------2---------||
 A||---0---------------0---------------4---------------4---------------4-------||
 E||---------------------------------------------------------------------------||

Sister, Holding on to me forever, Disco dancing with the
[Gadd2] [Gadd2] [C] [C]  
 
 E||---------------------------------------------------------------------------||
 B||---------7-8-7-----------7-8-7-----------5-3-----------5-3-----------------||
 G||-------7-------7-------7-------7-------5-----5-------5-----5---------------||
 D||-----9-----------9---9-----------7---5---------5---5---------5-------------||
 A||---9---------------9---------------5-------------5-------------5-----------||
 E||---------------------------------------------------------------------------||

Rapists, Your only crime is silence
[G] [G] [G] [G]  
 
 E||---------------------------------------------------------------------------||
 B||---------0-1-0-----------0-1-0-----------0-1-0-----------0-1-0-------------||
 G||-------0-------0-------0-------0-------0-------0-------0-------0-----------||
 D||-----0-----------0---0-----------0---0-----------0---0-----------0---------||
 A||---0---------------0---------------0---------------0---------------0-------||
 E||-0-------------------------------------------------------------------------||

Cant work at this
[G] [G] [Aadd2] [Aadd2]  
 
 E||---------------------------------------------------------------------------||
 B||---------0-1-0-----------0-1-0-----------2-3-2-----------2-3-2-------------||
 G||-------0-------0-------0-------0-------2-------2-------2-------2-----------||
 D||-----0-----------0---0-----------0---4-----------4---4-----------2---------||
 A||---0---------------0---------------4---------------4---------------4-------||
 E||---------------------------------------------------------------------------||

Anymore, Cant move I want to stay at home, Tied up to all these
[Dadd2] [Dadd2] [C] [C]  
 
 E||---------------------------------------------------------------------------||
 B||---------7-8-7-----------7-8-7-----------5-3-----------5-3-----------------||
 G||-------7-------7-------7-------7-------5-----5-------5-----5---------------||
 D||-----9-----------9---9-----------7---5---------5---5---------5-------------||
 A||---9---------------9---------------5-------------5-------------5-----------||
 E||---------------------------------------------------------------------------||

Crutches, Never far from your hands....
[CBORUS] 
3(g4) - Denotes fret 3 gradually bent up 1/2 step
[D] [C]  
 
 E||-----------------------------------------------||
 B||---7-----------------------------5-------------||
 G||---7-----------------------------5-------------||
 D||---7-----------------------------5-------------||
 A||---7-----------------------------5-------------||
 E||-----------------------------------------------||

Tsunami Tsunami came washing over me
[D] [C]  
 
 E||-----------------------------------------------||
 B||---7-----------------------------5-------------||
 G||---7-----------------------------5-------------||
 D||---7-----------------------------5-------------||
 A||---7-----------------------------5-------------||
 E||-----------------------------------------------||

Tsunami Tsunami came washing over me
[B#] [Em]  
 
 E||-----------------------------------------------||
 B||---4-------------------------------------------||
 G||---4-----------------3(g4)---------------------||
 D||---4-----------------2-------------------------||
 A||---4-----------------4-------------------------||
 E||---------------------2-------------------------||

Can't think Can't Speak Won't Talk Won't Walk
[VERSE] 
Doctors tells me that I'm cynical
I tell him that it must be chemical
So what am I doing girl
Cry into my drink I disappear
Eyes for teeth grating over me
Bring down the shadows of my mind
Sleep and breathe under our sheets
Inhale the anxiety
[C] [C] [C] [C] [C] [C] [C] [C] [C] [C] [C] [C]  
 
 E||---------------------------------------------------||
 B||--5--5--5----5--5--5----5--5--5----5--5--5---------||
 G||--5--5--5----5--5--5----5--5--5----5--5--5---------||
 D||--5--5--5----5--5--5----5--5--5----5--5--5---------||
 A||--5--5--5----5--5--5----5--5--5----5--5--5---------||
 E||---------------------------------------------------||

in-between in-between in-between in-between
[CBORUS] 
Tsunami Tsunami came washing over me
Tsunami Tsunami came washing over me
Tsunami Tsunami came washing over me
Tsunami Tsunami came washing over me
Through september under the weather
[BRIDGE] 
[Em] [Aadd2] [Dadd2]  
 
 E||--------------------------------------||
 B||----------------2----------7----------||
 G||--4-------------2----------7----------||
 D||--2-------------4----------9----------||
 A||--4-------------4----------9----------||
 E||--2-----------------------------------||

[AAABB] [-] [ABB] [-] [ABBBABBB] [-] [ABBBBABB]  
[F#] [Bm] [D#m]  
[C] [C] [C] [C] [C] [C] [C] [C] [C] [C] [C] [C]  
 
 E||---------------------------------------------------||
 B||--5--5--5----5--5--5----5--5--5----5--5--5---------||
 G||--5--5--5----5--5--5----5--5--5----5--5--5---------||
 D||--5--5--5----5--5--5----5--5--5----5--5--5---------||
 A||--5--5--5----5--5--5----5--5--5----5--5--5---------||
 E||---------------------------------------------------||

in-between in-between in-between in-between
[CBORUS] 
Tsunami Tsunami came washing over me
Tsunami Tsunami came washing over me
Tsunami Tsunami came washing over me
Tsunami Tsunami came washing over me
Take the GI's I Will have the spies

Important: The song above is NOT stored on the Chordie server. The original song is hosted at www.xguitar.com. Chordie works as a search engine and provides on-the-fly formatting. Chordie does not index songs against artists'/composers' will. To remove this song please click here.

Text color:
Chord color:
Chord grids: 
Font size:    
Page size: 

Aadd2 Bm C D D#m Dadd2 Em F# G Gadd2
Rate #3 of 6 versions

Jango Player

Login - add to songbook

SHARE PAGE  




You need to log in to post comments