Guitar Tabs, Chords and Lyrics
Server problems seems to be fixed. Chordie has been experiencing problems with songs disappearing. These issues now seems to be fixed, but still verifying the fix. If you find anything strange, please email admin@chordie.com.


Being a Girl  Mansun

being a girl
****PART 1****
G#5 466xxx
E5 022xxx
B5 x244xx
C#5 x466xx
[G#]E [466544]022100
B x24442
C# x46664
[F#]PLAY[244322] CHORDS IN BRACKETS SOFTLY.
[G#5] [G#5] [G#5] [G#5] [E5] [E5] [E5]  
[B5] [B5] [B5] [B5] [C#5] [C#5] [C#5]  
[G#5] [G#5] [G#5] [G#5] [E5] [E5] [E5]  
[B5] [B5] [B5] [B5] [C#5] [C#5] [C#5]  
[G#5]Bein[G#5]g [G#5]a [G#5] boy[E5]'s [E5]lik[E5]e s[B5]uck[B5]ing[B5] on[B5] a [C#5]lemo[C#5]n [C#5]
[G#5]And [G#5]I ju[G#5]dge [G#5]myse[E5]lf [E5]by [E5]the[B5] ad[B5]ver[B5]ts [B5] I[C#5] s[C#5]ee[C#5]
[G#5]My d[G#5] e o[G#5] d o[G#5] r a[E5] n [E5]t [E5] [B5]hid[B5]es [B5]the[B5] [C#5]real[C#5] me[C#5]
[G#5]Thes[G#5]e th[G#5]ings[G#5] [E5]ele[E5]vat[E5]e [B5]me [B5]abo[B5]ve [B5] [C#5]anim[C#5]als[C#5]
I [C#]feel [C#]like being a girl
[E]Being a girl
[G#]Being a girl
[E]Being a girl
[G#]Being a girl
Yeah, hoh, and my [C#]life's [E]never [F#]tasted [G#]sweeter ho ho ho
(interlude)
[G#5]I'm [G#5]so [G#5] [G#5] bo[E5]rin[E5]g m[E5]y c[B5]lot[B5]hes[B5] wa[B5]nna[C#5] kee[C#5]p [C#5]
[G#5]Some[G#5]one [G#5]else[G#5] [E5]war[E5]m, [E5] [B5]som[B5]eon[B5]e [B5] [C#5]cool[C#5]er[C#5]
[G#5]Tax [G#5]on [G#5] [G#5]ciga[E5]ret[E5]tes[E5] [B5]tre[B5]ats[B5] my[B5] [C#5]canc[C#5]er[C#5]
[G#5]Thes[G#5]e th[G#5]ings[G#5] e[E5]lev[E5]ate[E5] me[B5] ab[B5]ove[B5] [B5] [C#5]anim[C#5]als[C#5]
I [C#]feel [C#]like being a girl
[E]Being a girl
[G#]Being a girl
[E]Being a girl
[G#]Being a girl
Yeah, hoh, and my [C#]life's [E]never [F#]tasted [G#]sweeter ho ho ho
[(G#)]Being a girl
[(E)]Being a girl
[(B)]Being a girl
[(C#)]Being a girl
[(G#)]Being a girl
[(E)]Being a girl
[(B)]Being a[C#] feels[C#] like being a girl
[E]Being a girl
[G#]Being a girl
[E]Being a girl
[G#]Being a girl
Yeah, hoh, and my [C#]life's [E]never [F#]tasted [G#]sweeter ho ho ho
****Part 2****
Amaj7: x02020 } I know these chords are right,
Amin7: x02010 } because Chad told me them!
Dmaj7: xx0212
Dmin7: xx0210
Intro
[Amaj7] [Amin7] [Amaj7] [Amin7] [Dmaj7] [Dmin7] [Dmaj7] [Dmin7] 
 
 |-0------------------------------0------2---3--0-------|
 |-3------------------------------1------1---1--1-------|
 |-2------------------------------2------2---2--2-------|
 |-3------------------------------3------0---0--0-------|
 |------------------------------------------------------|
 |------------------------------------------------------|

A frog, it cannot comprehend the sea, nor me happiness
Girl is much to weak a word for me Made from balsa wood
 
 |------5------5--5-8-7/\-5-----5-|
 |--------------------------8-8---|
 |----5------5--------------------|
 |--7------7----------------------|
 |--------------------------------|
 |--------------------------------|

Being a girl, being a girl
I want to experience being a girl
I want to experience being a girl
I want to experience being a girl
 
 |-----------------------|
 |-----------------------|
 |-----------------------|
 |---------5-4-0-----0---|
 |-0-0-0-3-------3-3---0-|
 |-----------------------|
 |---0---------------------------------0-----2----3--0-------|
 |---3---------------------------------1-----1----1--1-------|
 |---2---------------------------------2-----2----2--2-------|
 |---3---------------------------------3-----0----0--0-------|
 |-----------------------------------------------------------|
 |-----------------------------------------------------------|

The only pureness left is preached by Marx, time to contemplate
Never been informed there must be poor, or the rich won't be rich anymore
 
 |----------------------5-8-7/\-5-----5-|
 |------57575-----57575-----------8-8---|
 |----5---------5-----------------------|
 |--7---------7-------------------------|
 |--------------------------------------|
 |--------------------------------------|

Being a girl, being a girl
I want to experience being a girl
I want to experience being a girl
I want to experience being a girl
I want to experience being a girl
I want to experience being a girl
I want to experience being a girl
I want to expuh...
 
 |----12h14p12-------12h14p12----12h14p12-|
 |-14----------12h13----------14----------|
 |----------------------------------------|
 |----------------------------------------|
 |----------------------------------------|
 |----------------------------------------|
 |----------12h14p12-------12h14p12-------|
 |-12h13-13----------12-13----------12h13-|
 |----------------------------------------|
 |----------------------------------------|
 |----------------------------------------|
 |----------------------------------------|
 |------------------------------|
 |------------------------------|
 |---------0-2------------------|
 |-------------0-----0----------|
 |-0-0-0-3-------3-3---0--0-3-2-|
 |------------------------------|
 |-----------3---3-2/\------------------|
 |-----1---------------3-1-1-3----------|
 |-2-2---2-2---2---------------2----0---|
 |--------------------------------2---4-|
 |--------------------------------------|
 |--------------------------------------|
 |-----------3---3-2/\------------------|
 |-----1---------------3-1-1-3----------|
 |-2-2---2-2---2---------------2----0---|
 |--------------------------------2---4-|
 |--------------------------------------|
 |--------------------------------------|

The only pureness left is preached for me by Marx
 
 |-----------3---3-2/\-----------------|
 |-----1---------------3-1-1-3---------|
 |-2-2---2-2---2---------------2---0---|
 |-------------------------------2---4-|
 |-------------------------------------|
 |-------------------------------------|

The only pureness left is preached for me by Marx
 
 |-----------3-/5-3-0-3-0-/5-------------3p0-3p0-|
 |-----1---------------------1p0-1p0-------------|
 |-2-2---2-2-------------------------------------|
 |-----------------------------------------------|
 |-----------------------------------0h2---------|
 |-----------------------------------------------|

The only pureness left is preached by
 
 |-----------3---3-2/\-----------------|
 |-----1---------------3-1-1-3---------|
 |-2-2---2-2---2---------------2---0---|
 |-------------------------------2---4-|
 |-------------------------------------|
 |-------------------------------------|

Marx
 
 |----12h14p12-------12h14p12----12h14p12-------|
 |-14----------12h13----------14----------12h13-|
 |----------------------------------------------|
 |----------------------------------------------|
 |----------------------------------------------|
 |----------------------------------------------|
 |------------------------|
 |------------------------|
 |-----1----2-0-----------|
 |---2----2-----4-2--1-2--|
 |-0-----0----------------|
 |------------------------| repeatedly
 |-16---------------------| with assorted
 |---------------12-------| effects
 |------------------------|
 |------------------------|
 |------------------------|
 |------------------------|
 |------------------------|
 |------------------------|
 |-----1----2-0-----------|
 |---2----2-----4-2--1-2--|
 |-0-----0----------------|
 |------------------------| repeatedly
 |--15--14-15--17--16-13--14-15-|-------| + various feedback effects.
 |------------------------------|-14----|
 |------------------------------|----14-|
 |------------------------------|-------|
 |------------------------------|x a few|
 |------------------------------|-------|


Important: The song above is NOT stored on the Chordie server. The original song is hosted at www.xguitar.com. Chordie works as a search engine and provides on-the-fly formatting. Chordie does not index songs against artists'/composers' will. To remove this song please click here.

Text color:
Chord color:
Chord grids: 
Font size:    
Page size: 

Amaj7 Amin7 B5 C# C#5 Dmaj7 Dmin7 E E5 F# G# G#5
Rate #1 of 6 versions

Jango Player

Login - add to songbook

SHARE PAGE  



You need to log in to post comments