Guitar Tabs, Chords and Lyrics
Server problems seems to be fixed. Chordie has been experiencing problems with songs disappearing. These issues now seems to be fixed, but still verifying the fix. If you find anything strange, please email admin@chordie.com.


Fall Out  Mansun

CHORDS
A x02220
C x35553
[G] [355433]  
[G#]D# [466544]x68886
[F]F. [133211]x.9.10.10.10.9.
Intro (Dance of the sugar plum fairy - style)
 
 |-13-10-13-12--9-10--------------------------------13----13----|
 |--------------------13-13-13-12-12-12-11-11-11-13----14----13-|
 |--------------------------------------------------------------|
 |--------------------------------------------------------------|
 |--------------------------------------------------------------|
 |--------------------------------------------------------------|

I [A]know you're purely Marxist
Your phil[C]osophy's so cool
With your [G]tranquillisers, valium and [F]gin
You talk of [A]euthanasia
And your [C]breakdown was so cool
Did [G]Stanley Kubrick fake it with the [F]moon?
This [C]cult of positivity, once [G#]again, yeah
G C D# F.
But I didn't think about the fall out
C D# F.
Fall out
 
 e|-8--8-10--10-11--11-13--13-15--15--15--8--8-8-8-7--4-3--0-1---0------|
 B|------------------------------------------------------------1---1-3/-|
 G|---------------------------------------------------------------------|
 D|---------------------------------------------------------------------|
 A|---------------------------------------------------------------------|
 E|---------------------------------------------------------------------|
 e|-8--8-10--10-11--11-13--13-15--15--15--8--8-8-8-7--4-3--10/-8--------|
 B|--------------------------------------------------------------10/----|
 G|------------------------------------------------------------------8--|
 D|---------------------------------------------------------------------|
 A|---------------------------------------------------------------------|
 E|---------------------------------------------------------------------|
 e|---------------------------------------------------|
 B|-10/-----------------------------------------------|
 G|-----8s0-------------------------------------------|
 D|---------10-9--------------------------------------|
 A|----------------6-6/7\6--4-6--4-6-8-3-~~~~~~~~~~~--|
 E|---------------------------------------------------|
 e|--------------------------------------------------------------------|
 B|--------------------------------------------------------------------|
 G|-10-10-9-9-9-10-9-12-10-12/\----------------------------------------|
 D|--------------------------------------------------------------------|
 A|---------------------------------6-6/7\6--4-6--4-6-8-3-~~~~~~~~~~~--|
 E|--------------------------------------------------------------------|

those last two bars are played simultaneously with these next two...
 
 e|------------------------------------------------------------------------------|
 B|------------------------------------------------------------------------------|
 G|------8------------8--------3---------3-------3---------3-------2---------2---|
 D|--------10------10---10-------5-----5---5-------4-----4---4-------3-----3---3-|
 A|---10--------10-----------5-------5---------4-------4---------3-------3-------|
 E|-8---------8------------3-------3---------2-------2---------1-------1---------|
 e|------------------------------------------------------------------------------|
 B|------------------------------------------------------------------------------|
 G|------8------------8--------3---------3-------3---------3-------2---------2---|
 D|--------10------10---10-------5-----5---5-------4-----4---4-------3-----3---3-|
 A|---10--------10-----------5-------5---------4-------4---------3-------3-------|
 E|-8---------8------------3-------3---------2-------2---------1-------1---------|

This [C]cult of positivity, once [G#]again, yeah
G C D# F.
But I didn't think about the fall out
C D# F.
Fall out
 
 e|---------------------------------------|
 B|---------------------------------------|
 G|-----4---5-4---------------4---5-4-----|
 D|---5---5-------5---5-----7---7-------7-|
 A|-3-----------3---3---3/7-----------7---| x lots.
 E|---------------------------------------|

is played alongside a VERY simple little fiddle with these 3 notes:
 
 e|-------------------|
 B|--------------12---|
 G|--9-9-12-9--9----9-|
 D|-------------------|
 A|-------------------|
 E|-------------------|


Important: The song above is NOT stored on the Chordie server. The original song is hosted at www.xguitar.com. Chordie works as a search engine and provides on-the-fly formatting. Chordie does not index songs against artists'/composers' will. To remove this song please click here.

Text color:
Chord color:
Chord grids: 
Font size:    
Page size: 

A C F G G#
Rate #1 of 2 versions

Jango Player

Login - add to songbook

SHARE PAGE  



You need to log in to post comments