Guitar Tabs, Chords and Lyrics
Server problems seems to be fixed. Chordie has been experiencing problems with songs disappearing. These issues now seems to be fixed, but still verifying the fix. If you find anything strange, please email admin@chordie.com.


Six  Mansun

tabbed by Matt Lancashire <matt@lancs.nildram.co.uk> and David
Cotterill <davidc@awgdurham.co.uk>
 
 e|-------9-|
 B|----12---|
 G|-11------|
 D|---------| x a few, at random
 A|---------|
 E|---------|
 D|------------------------------------------------------------------|
 A|-5-5-5-5-5-5-5-5-4-4-4-4-4-4-4-4--9-9-9-9-9-9-9-9-7-7-7-7-7-7-7-7-|
 E|-3-3-3-3-3-3-3-3-2-2-2-2-2-2-2-2--7-7-7-7-7-7-7-7-5-5-5-5-5-5-5-5-|

And you see, I kind of shivered to conformity
 
 D|------------------------------------------------------------------|
 A|-5-5-5-5-5-5-5-5-4-4-4-4-4-4-4-4--9-9-9-9-9-9-9-9-7-7-7-7-7-7-7-7-|
 E|-3-3-3-3-3-3-3-3-2-2-2-2-2-2-2-2--7-7-7-7-7-7-7-7-5-5-5-5-5-5-5-5-|

Did you see the way I cowered to authority, you see,
 
 D|------------------------------------------------------------------|
 A|-5-5-5-5-5-5-5-5-4-4-4-4-4-4-4-4--9-9-9-9-9-9-9-9-7-7-7-7-7-7-7-7-|
 E|-3-3-3-3-3-3-3-3-2-2-2-2-2-2-2-2--7-7-7-7-7-7-7-7-5-5-5-5-5-5-5-5-|

My life, it's a series of compromises anyway, it's a
 
 e|------------------------------------------------------------------|
 B|------------------------------------------------------------------|
 G|-~11-9-7-9-7--~11--9-7-9---------~11--9-7-------------------------|
 D|--------------------------7------------------9--------------------|
 A|-------------------------------------------9---9---7---7---9------|
 E|---------------------------------------------------------------7--|

| 2 G U I T A R S |
 
 D|------------------------------------------------------------------|
 A|-5-5-5-5-5-5-5-5-4-4-4-4-4-4-4-4--9-9-9-9-9-9-9-9-7-7-7-7-7-7-7-7-|
 E|-3-3-3-3-3-3-3-3-2-2-2-2-2-2-2-2--7-7-7-7-7-7-7-7-5-5-5-5-5-5-5-5-|

sham, and I'm conditioned to accept it all, you see
 
 |-------------14----------|
 |-12----12----------12----|
 |----11----11----11----11-|
 |-------------------------|
 |-------------------------|
 |-------------------------|

(More) [G]than I had [G]bef[G]ore
(More) [F#]than I've pre[F#]sent[F#]ly got
(More) [B]than I'll e[B]ver us[B]e up
(More) [A]than I rea[A]lly [A]need
[E] [F#] It's more than [A]I can spare
My re[A#]ligion is caged
[F#] [F#] [A] [B] [F#] [F#] [A] [B]  
[F#]Saf[F#]e from [A]pro[B]gress, [F#]pur[F#]gatory I [A]kn[B]ow
[F#]How[F#] does this af[A]fect [B]me? [F#]Emo[F#]tionally af[A]fect [B]me?
Will they [D]let [B]me go
Will they [D]let [B]me go
Will they [D]let [B]me go
Equi[A#]librium imbalanced [A]again
[D]I feel no [F]pain
 
 e|--------|

B|--14~12-|
 
 G|--------|

[D]I feel no.[F]..
[D]I feel no [F]pain
[G#]The Jabberwocky haunts me, in my [G]memory it's [F#]caged
I feel no pain (I feel no pain)
I feel no... (I feel no...)
The Jabberwocky haunts me, in my memory it's caged
 
 e|------12-10------------|
 B|------------10-12------|
 G|-9-10-------------10-9-|
 D|-----------------------|
 A|-----------------------|
 E|-----------------------| x a few
 |---------------------|
 |-10-12---------------|
 |-------10-9--10-9----|
 |------------------12-|
 |---------------------|
 |---------------------| also x a few
 |--------------------------------13---------------------------------------|
 |-13-12--13s15-15s13----15s13-------------15s13---------------------------|
 |-----------------------------------13-------------14s12------------------|
 |--------------------15-------15-------15-------15----------15-12---------|
 |--------------------------------------------------------15--------8-7----|
 |----------------------------------------------------------------------10-|
 |---------------------13---------------------------------------|
 |-15s13-----15s13--------------15s13---------------------------|
 |------------------------13-------------14s12------------------|
 |--------15--------15-------15-------15----------15-12---------|
 |---------------------------------------------15--------8-7----|
 |-----------------------------------------------------------10-|
 |----------------------13-|
 |-15s13----15-15s13-------|
 |-------------------------|
 |------15-----------15----|
 |-------------------------|
 |-------------------------|

[D]I feel no [F]pain (I feel no pain)
[D]I feel no.[F].. (I feel no...)
[D]I feel no [F]pain (I feel no...)
But if you [G#]punched me in the stomach then I'd f[G]eel it a[F#]gain
[D]Feel no [F]pain (I feel no pain)
[D]I feel n[F]o... (I feel no...)
[D]I feel n[F]o pain (I feel no...)
But if you [G#]punched me in the stomach then I'd f[G]eel it a[F#]gain
D! D! D! D! D! D!
[D] [A] [E]  
[G]Life is a compromise [E]anyway
[G]Life is a compromise [E]anyway
[G]Life, it's a compromise [E]anyway
[G]Life, it's a compromise [E]anyway
And it's a[C] sham, and I'll [D]accept it all
[G]Life is a compromise [E]anyway
[G]Life is a compromise [E]anyway
[G]Life, it's a compromise [E]anyway
[G]Life, it's a compromise [E]anyway
And it's a [C]sham, and I'll ac[D]cept it all
 
 e|------------------------------------------------------------------|
 B|------------------------------------------------------------------|
 G|-----4-----4---------3-----3----------8-----8---------6-----6-----|
 D|-----5-----5---------4-----4----------9-----9---------7-----7-----|
 A|-5-5-5-5-5-5-5-5-4-4-4-4-4-4-4-4--9-9-9-9-9-9-9-9-7-7-7-7-7-7-7-7-|
 E|-3-3---3-3---3-3-2-2---2-2---2-2--7-7---7-7---7-7-5-5---5-5---5-5-|

And you see, I kind of shivered to conformity
 
 e|------------------------------------------------------------------|
 B|------------------------------------------------------------------|
 G|-----4-----4---------3-----3----------8-----8---------6-----6-----|
 D|-----5-----5---------4-----4----------9-----9---------7-----7-----|
 A|-5-5-5-5-5-5-5-5-4-4-4-4-4-4-4-4--9-9-9-9-9-9-9-9-7-7-7-7-7-7-7-7-|
 E|-3-3---3-3---3-3-2-2---2-2---2-2--7-7---7-7---7-7-5-5---5-5---5-5-|

Did you see the way I cowered to authority, you see,
 
 e|------------------------------------------------------------------|
 B|------------------------------------------------------------------|
 G|-----4-----4---------3-----3----------8-----8---------6-----6-----|
 D|-----5-----5---------4-----4----------9-----9---------7-----7-----|
 A|-5-5-5-5-5-5-5-5-4-4-4-4-4-4-4-4--9-9-9-9-9-9-9-9-7-7-7-7-7-7-7-7-|
 E|-3-3---3-3---3-3-2-2---2-2---2-2--7-7---7-7---7-7-5-5---5-5---5-5-|

And my life, it's a series of compromises anyway, it's a
 
 e|------------------------------------------------------------------|
 B|------------------------------------------------------------------|
 G|-~11-9-7-9-7--~11--9-7-9---------~11--9-7-------------------------|
 D|--------------------------7------------------9--------------------|
 A|-------------------------------------------9---9---7---7---9------|
 E|---------------------------------------------------------------7--|

| 2 G U I T A R S |
 
 e|------------------------------------------------------------------|
 B|------------------------------------------------------------------|
 G|-----4-----4---------3-----3----------8-----8---------6-----6-----|
 D|-----5-----5---------4-----4----------9-----9---------7-----7-----|
 A|-5-5-5-5-5-5-5-5-4-4-4-4-4-4-4-4--9-9-9-9-9-9-9-9-7-7-7-7-7-7-7-7-|
 E|-3-3---3-3---3-3-2-2---2-2---2-2--7-7---7-7---7-7-5-5---5-5---5-5-|

sham, and I'm conditioned to accept it all, you see
 
 |-------------14----------|
 |-12----12----------12----|
 |----11----11----11----11-|
 |-------------------------|
 |-------------------------|
 |-------------------------|

(More) [G]than I had [G]bef[G]ore
(More) [F#]than I've pre[F#]sent[F#]ly got
(More) [B]than I'll e[B]ver us[B]e up
(More) [A]than I rea[A]lly [A]need
[E] [F#] It's more than [A]I can spare
My re[A#]ligion is caged
BARRE CHORDS:
[A]A# [-]- [577655]688766
B - x24442
C - x35553
D - x57775
E - 022100
[F] [-] [133211]  
[F#] [-] [244322]  
[G] [-] [355433]  
[G#] [-] [466544]  

Important: The song above is NOT stored on the Chordie server. The original song is hosted at www.xguitar.com. Chordie works as a search engine and provides on-the-fly formatting. Chordie does not index songs against artists'/composers' will. To remove this song please click here.

Text color:
Chord color:
Chord grids: 
Font size:    
Page size: 

A A# B C D E F F# G G#
Rate #3 of 3 versions

Jango Player

Login - add to songbook

SHARE PAGE  




You need to log in to post comments