Guitar Tabs, Chords and Lyrics
Server problems seems to be fixed. Chordie has been experiencing problems with songs disappearing. These issues now seems to be fixed, but still verifying the fix. If you find anything strange, please email admin@chordie.com.


Special/Blown It (Delete as Appropriate)  Mansun

CHORDS
C 08.10.10.xx.xx.xx
F xx.08.10.10.xx.xx
G xx.10.12.12.xx.xx
G# xx.11.13.13.xx.xx
A# 06.08.08.xx.xx.xx
D# xx.11.13.13.xx.xx
g# 04.06.06.xx.xx.xx
g 03.05.05.xx.xx.xx
f 01.03.03.xx.xx.xx
A# xx.13.15.15.xx.xx
B. xx.14.16.16.xx.xx
"Special" intro
 
 |--------|
 |--------|
 |--------|

|-9-9-9--|
 
 |--------|
 |--------|

Main intro
 
 |----------------------------------------------------------------|
 |------9/--11-11---------------9---------------------------------|
 |----------10-10----------7/----10-------------------------------|
 |-10-------------10--------------------10-9-------13s15----15----|
 |-------------------10----------------------10----------15----15-|
 |-----------------------8-----------8----------11----------------|
 |------------------------------------------------------|
 |-9--8-------------------------------------------------|
 |-------7----------------------------------------------|
 |----------8-10--------12------------------------------|
 |--------------------------10-8-10--10-8-----11s13--14-|
 |-----------------11---------------------8-------------|
 |--------------------------------------------3--|
 |-------------------------------------------4---|
 |-----3-------0-------0-------0------------5----|
 |---5---5---0---0---0---0---0-------------------|
 |-3-------1-------------------------13-14-------|
 |-----------------4-------3-----1---------------|

then repeat all that, and also play:
 
 |----------------------------------------------------|
 |----------------------------------------------------|
 |---------------------------------------------12-----|
 |--13--12--10----12--12--13--12--10----9--10------12-|
 |----------------------------------------------------|
 |----------------------------------------------------|

and continue to swirl about on those notes for a while, including this bit:
 
 |-------------------------------------------------------------|
 |-------------------------------------------------------------|
 |-------------------------------------------------------------|
 |-13---12-13-12-13-12-13-12-13-12-10---12s17-12---------------|
 |-------------------------------------------------13---13-14--|
 |-------------------------------------------------------------|

Anyway, that goes on for a while. Then, we get into the meat
of Special Blown It (as it's known to it's friends), which is:
[C]I've blown it in [F]every single [C]way,
screwed every [F]single [G]chance that [G#]came
[G]You're a [C]super star in [A#]waiting for the silver [G#]screen
Then the pressure came [D#]- swept away in a ti[F]dal wave
Could be [C]all of you, still awake at noon
[D#]Blew my chances in a tr[C]agic flurry, sweeping [G#]apathy
[G]Buy all my food from the[A#] BP store when the [G#]night kicks in
[C]I'm turning my [F]back on every[C]one
I've blown every[F]thing I've [G]ever [G#]done
I've [C]fucked it up, [A#]shot my load
g# g f
Spewed onto the motorway shoulder
g# g
I could have been somebody special
**THIS NEXT LUMP IS PLAYED ALONG WITH THE MAIN INTRO**
I'm not such a tragic waste of space
I could bring happiness to people
Just one more greatest hits tour for the devotees
The same old faces came
They love their summer spectaculars
By the grace of God could be up by noon
And not a tragic waster but I can't stay focused for my apathy
They could have bought me a brand new car and a house in France
I've really blown it now
Blew it all away on a whim
Fucked it up, shot my load
Spewed onto the motorway shoulder
I could have been somebody special
[C]Sat on my [F]own for far too [C]long
Things could have [F]been so [G]different [G#]now
[G] [C]Life looks so con[A#]fusing through my window [G#]bay
Just to see a face,[D#] I'm really pleased when the [F]gas man comes
Could be [C]all of you, still awake at noon
[D#]Blew my chances in a tr[C]agic flurry of [F]apathy
[D#] all my food from the [A#]BP store when the n[G#]ight kicks in
[D#]I've really [C]blown it now
G# A#. B.
Blew it all awayay
I've [C]fucked it up, [A#]shot my load
g# g f
Spewed onto the motorway shoulder
g# g
I could have been somebody special

Important: The song above is NOT stored on the Chordie server. The original song is hosted at www.xguitar.com. Chordie works as a search engine and provides on-the-fly formatting. Chordie does not index songs against artists'/composers' will. To remove this song please click here.

Text color:
Chord color:
Chord grids: 
Font size:    
Page size: 

A# C D# F G G#
Rate #1 of 1 versions

Login - add to songbook

SHARE PAGE  




You need to log in to post comments