Guitar Tabs, Chords and Lyrics
Major upgrade!! After one year development the new version of Chordie is now online! Please give feedback.


Downfall  Matchbox Twenty

 
 -------------------------------------------------------------------------------

Downfall - Matchbox Twenty
 
 -------------------------------------------------------------------------------

Tabbed by: Tom Sprankling
Email: Sprankling2001@Yahoo.com
Tuning: Standard Tuning
Chords
 
 ------

[Em] [D] [Am] [C] [G]  
 
 e|-0-----2-----0-----0-----3-----|
 B|-0-----3-----1-----1-----3-----|
 G|-0-----2-----2-----0-----0-----|
 D|-2-----0-----2-----2-----0-----|
 A|-2-----------0-----3-----2-----|
 E|-0-----------------0-----3-----|

Verse 1
 
 -------

I wonder how you s[Em]leep,
I wonder what you t[D]hink of me,
If I could go [Am]back,
Would you have ever [Em]been with [D]me.
I want you to be u[Em]neased, ((Riff 1))
I want you to r[Am]emember,
I want you to b[G]elieve in me, ((Riff 1))
I w[Em]ant you [C]on my s[D]ide,
Come on
((Riff 1))
 
 e|---------------------------------------|
 B|---------------------------------------|
 G|------9-/-11-\-9-----------------------|
 D|---9-------------9------7-h-9-~~~------|
 A|---------------------------------------|
 E|---------------------------------------|

Chorus
 
 -------

Lay it down,[Em] [C]
Ive[G] always been w[D]ith you,
Here and now,[Em] [C]
Giv[G]e all that's w[D]ithin you,
Be my saviour,[Em] [C]
And[G] I'll be your [D]downfall.
[Em] [C] [G] [D]  
Verse 2
 
 -------

Em,
Here we go again,
Ashamed of being bro[D]ken in,
Getting off t[Am]rack,
I want to get you [Em]back ag[D]ain
I want you to t[Em]rouble me, ((Riff 1))
I want you to l[Am]inger,
I want you to a[G]gree with me, ((Riff 1))
I [Em]want so m[C]uch so ba[D]d
Come on.
Chorus X 1
From here on the chorus chords are played
through and through after the choir finishes.
Happy playing!!!! Obviously it's not perfect,
so if you have any corrections or improvements
please e-mail me.
| / slide up
| \ slide down
| h hammer-on
| p pull-off
| ~ vibrato
| + harmonic
| x Mute note
===========================================================================

Important: The song above is NOT stored on the Chordie server. The original song is hosted at www.xguitar.com. Chordie works as a search engine and provides on-the-fly formatting. Chordie does not index songs against artists'/composers' will. To remove this song please click here.

Text color:
Chord color:
Chord grids: 
Font size:    
Page size: 

Am C D Em G
Rate #2 of 5 versions

Jango Player

Login - add to songbook

SHARE PAGE  



You need to log in to post comments