Guitar Tabs, Chords and Lyrics
Major upgrade!! After one year development the new version of Chordie is now online! Please give feedback.


Soul  Matchbox Twenty

 
 -------------------------------------------------------------------------------

Soul - Matchbox Twenty
 
 -------------------------------------------------------------------------------

Tabbed by: Tom Sprankling
Email: Sprankling2001@yahoo.com
Tuning: standard tuning
Intro & Verse - listen to the track for the timing.
 
 e|--x-x-x-x---x-x-x--x--x--x--x-x-x-x-x------x-------------------------------|
 B|--x-x-x-x---x-x-x--x--x--x--x-x-x-x-x------x-------------------------------|
 G|--x-x-x-x---6-6-6--8--9--x--9-8-6-6-6--9~--x---9-8-6---6\4-----------------|
 D|--x-x-x-x---x-x-x--x--x--x--x-x-x-x-x--9~--x---------9-----6---6/7--6/7----|
 A|--x-x-x-x---7-7-7--7--7--x--7-7-7-7-7--7~--x-------------------8/9--8/9----|
 E|--x-x-x-x---5-5-5--5--5--x--5-5-5-5-5------x-------------------------------|

Hang out my window,
And over your head,
Stare at your feelings,
To see where they end.
You're w[D]aiting here,
For someone else to br[A]eak you,
From the in[E]si[E2]de,[E]
[D]You've been so co[A]mposed
But we all know there's
Chorus:
[E]Always something,
[A]Tearing you ap[E]ar[E2]t,[E]
[E]Always so much lo[A]nger,
Than you counted[E] o[E2]n.[E]
[C#m]It hits you so much h[A]arder,
Than you th[E]ou[E2]ght[E],
But you don't w[D]orry,
You don't wo[A]rry
Cuz you got s[E]oul.
Verse 2:
You're so heavy,
You're so misunderstood,
I spent all my wishes,
Wishing time where good,
When I still could.
Wait aro[D]und here,
For someone else to ta[A]ke me,
Past the good s[E]id[E2]e,[E]
[D]You've been here [A]so long now
But you don't show there's.
Chorus:
Bridge:
C[A]uz darling you've got [B]so much so[E]ul,
[A] [B] [E]  
[A] [B] [E]  
D[A]arling you've got so m[B]uch soul.[A]
Chorus:
That's it! it's not perfect but it will do!
Chords:
[D] [A] [E] [E2] [C#m] [B]  
 
 e|--3--0--0--0---4----2----|
 B|--2--2--0--0---4----4----|
 G|--3--2--1--2---5----4----|
 D|--0--2--2--2---6----4----|
 A|-----0--2--2---6----2----|
 E|--------0--0---4----2----|

| / slide up
| \ slide down
| h hammer-on
| p pull-off
| ~ vibrato
| + harmonic
| x Mute note
===============================================================================

Important: The song above is NOT stored on the Chordie server. The original song is hosted at www.xguitar.com. Chordie works as a search engine and provides on-the-fly formatting. Chordie does not index songs against artists'/composers' will. To remove this song please click here.

Text color:
Chord color:
Chord grids: 
Font size:    
Page size: 

A B C#m D E E2
Rate #2 of 6 versions

Jango Player

Login - add to songbook

SHARE PAGE  



You need to log in to post comments